Song name
# A B C D E F G H I J K L M N O P Q R S T U V W X Y Z

Axel F - Crazy Frog tab

Tabbed by Eduan Meyer

I do not own this song, I tabbed this just for fun.
You may not broadcast or sell this but may use it private.

Tuning however you like. Preferably normal tunig.

Crazy Frog by Axel F

This is my first tab so take it easy in the comments section.

Play both strings with one finger rather than struggling with two (second row), its easier.

E|-----------------------------------------------------------------------|
B|-----------------------------------------------------------------------|
G|-----------------------------------------------------------------------|
D|-----------------------------------------------------------------------|
A|---0-3--0-3h5p3-0--0-0-7--0-5h7p5-0--0-0-9--0-0-7--0-0-7h9p7/5---3-3---|
E|-----------------------------------------------------------------------|


E|-----------------------------------------------------------------------|
B|-----------------------------------------------------------------------|
G|-----------------------------------------------------------------------|
D|---0-3--0-3h5p3-0--0-0-7--0-5h7p5-0--0-0-9--0-0-7--0-0-7h9p7/5---3-3---|x2
A|---0-3--0-3h5p3-0--0-0-7--0-5h7p5-0--0-0-9--0-0-7--0-0-7h9p7/5---3-3---|
E|-----------------------------------------------------------------------|


E|-----------------------------------------------------------------------|
B|-----------------------------------------------------------------------|
G|-----------------------------------------------------------------------|
D|---0-3--0-3h5p3-0--0-0-7--0-5h7p5-0--0-0-9--0-0-7--0-0-7h9p7/5---3-3---|
A|-----------------------------------------------------------------------|
E|-----------------------------------------------------------------------|



And then followes the "Brein briem briem" part...
This part can be used everytime in the "chorus" section.

Add some distortion and this actually sounds pretty good.


These tabs are not 100% correct but you can use them as a baseline if you want to 
create accurate tabs for this song.
I was just kidding around when I recognized the tune I was playing.

Contact at eduan.skyline.meyer@gmail.com
Please don't just e-mail me if it is nothing to do with this tab.
If you have created a more accurate version it would be kind to let me know.
Tap to rate this tab
# A B C D E F G H I J K L M N O P Q R S T U V W X Y Z