Song name
# A B C D E F G H I J K L M N O P Q R S T U V W X Y Z

Axel F - Crazy Frog tab

Very easy versions, two of them (one higher, one lower). Check Them Out!

Lower:
e |---------------------------------------------------|
B |---------------------------------------------------|
G |---------------------------------------------------|
D |----------0-------2-----3-2-----2-2----------------|
A |--0-3-0-0---0---0---0-0-----3-0-----0-0-----2-0----|
E |--------------3-------------------------3-0--------|

Higher:

e |----------------------------------1-----------------|
B |------------------1-----2-1-----1-------------------|
G |----1-----3-----------------1---------------0-------|
D |--3---3-3---3-1-3---3-3-------3------3-3-3-1----3---|
A |----------------------------------------------------|
E |----------------------------------------------------|
Tap to rate this tab
 
# A B C D E F G H I J K L M N O P Q R S T U V W X Y Z