Song name
# A B C D E F G H I J K L M N O P Q R S T U V W X Y Z

Axel Rudi Pell - Tales Of The Crown tab

Axel Rudi Pell
Tales of the crown
From the album: "Tales of the crown"

OK, here's my favourite song from the album
Tales Of The Crown. And once again I tried to find
tabs for this song but nobody hasn't tabbed it
(or put it on internet) so I did it myself.
I think it's almost 100% correct (hope so,
I've worked with this one for long time)
but hey, I'm only human :D
---------------------------------------------------------------------------------
Guitar tuned: Eb	  Tabbed by:rockman85(rockman85@jippii.fi)


Intro:
Part I
e--------------------------------------------|
---------------------------------------------|
---------------------------------------------|
---------------------------------------------|
-----3-2-0-0h2------3-2-0--5/7---------------|
E--0-----------3--0--------3/5---------------|

Verse: play this part 2 times
(end with this when played 8th time Intro) Part I
e--------------------------------------------|
---------------------------------------------|
-----------------------------------7---------|
--------------------------------2--7---------|
-----3-2-0-0h2------3-2-0--5/7--2--5---------|
E--0-----------3--0--------3/5--0------------|

then this part 2 times: Part II
e--------------------------------------------|
---------------------------------------------|
----------------------------------------7----|
-----------------------------2----------7----|
----3-2-0-0h2------3-2-0-5-7-2----------5----|
E-0-----------3--0-------3/5-0-0-0-0-0-------|
 			      p.m.---I
Pre-chorus:
e--------------------------------------------|
---------------------------------------------|
---5--7-----9--------------------------------|
---5--7--5--9--------------------------------|
---3--5--5--7--------------------------------|
E--------3-----------------------------------|

Chorus:
e--------------------------------------------|
---------------------------------------------|
---------------------------5--7-5------------|
---/////----5-4-5-5-4-5-2--5--7-5------------|
--/////-----7-5-7-7-5-7-3--3--5-3------------|
E--------------------------------------------|
I--------------------------------------------|I
pick scrape

Before solo:
e------------------------------------------|
-------------------------------------------|
----5--7-7()-------------------------------|
----5--7-7()-------------------------------|
----3--5-5()-------------------------------|
E------------------------------------------|

Break & under solo:
e------------------------------------------|
-------------------------------------------|
----5----7-----9---------------------------|
---5-5--7-7---9-9-9-7-5--------------------|
--3----5-----7-----------------------------|
E------------------------------------------|

Ending:
e-------------------------------------------------|----------|
--------------------------------------------------|----------|
--------------------------------------------------|----------|
--2-2--2--2--2()----------------------------------|--2-------|
--2-2--2--2--2()------3-2-0-0h2-----3-2-0-0h2-5/7-|--2-------|
E-0-0--0--0--0()----0-----------3-0-----------3/5-|--0-------|

Song goes:

Intro 7x + ending with verse riff part I (at 8th time)
Verse part I 2x & II 2x + Intro part I 1x
Pre-chorus 2x
Chorus 4x
Intro part I 3x
Verse part II 2x
Intro part I 1x
Pre-chorus 2x
Chorus 4x
Break & under solo 8x
Before solo 2x
Break & under solo 11x
(I think that's not same riff all the time but I can't find
how he plays it)
Before solo 2x
Chorus 8x
Intro part I 4x
Ending 1x

If you have solo or if you tab it out feel free to put it here or
send it to my e-mail.
Tap to rate this tab
# A B C D E F G H I J K L M N O P Q R S T U V W X Y Z