Song name
# A B C D E F G H I J K L M N O P Q R S T U V W X Y Z

Axel Rudi Pell - Visions In The Night tab

Axel Rudi Pell
Visions In The Night
From the album: "Black Moon Pyramid"
-----------------------------------------------------------------------------

Guitar tune:Eb			              Tabbed by:rockman85

Intro & Chorus:

e------------------------------------------------------------|
-------------------------------------------------------------|
----5-5-4-5---5-5-7-7-4----5-5-4-5--2-4-5-4------------------|
----7-7-5-7---7-7-9-9-5----7-7-5-7--3-5-7-5------------------|
--00--------0-----------00-----------------------------------|
E------------------------------------------------------------|
  ..        .           ..


Verse:
(clean gtr)
e--------------------------------------------------------------|
---------------------------------------------------------------|
----5---------4-----2---2--4---5-------4----2--2---7-5-4-2-----|
------7-7----5-5---3-3-3--5------7-7--5-5--3---3---9-7-5-3-----|
---0-------0-----0-----------0------0----0---------------------|
E--------------------------------------------------------------|

Bridge:

e-----------------------------------------------------------|
------------------------------------------------------------|
------------------------------------------------------------|
------------------------------------------------------------|
------------------------------------------------------------|
E--8()---7()---5()----8()----7()----5()---------------------|

Ending:

e--------------------------------------------------------------|
---------------------------------------------------------------|
---2-4--2-4--2-4----5-5-4-4-5/---------------------------------|
---3-5--3-5--3-5----7-7-5-5-7/---------------------------------|
---------------------------------------------------------------|
E--------------------------------------------------------------|


Song goes:

Intro & Chorus 4x
Verse          2x
Bridge         1x
Intro & Chorus 4x
Verse          2x
Bridge         1x
Intro & Chorus 4 x
Solo: (Verse 2x,Bridge 1x)
Intro & Chorus 6x
Ending         1x (end with this when played 6th time of Intro & Chorus riff)

----------------------------------------------------------------------------
. = p.m.
() = let ring
Tap to rate this tab
# A B C D E F G H I J K L M N O P Q R S T U V W X Y Z