Song name
# A B C D E F G H I J K L M N O P Q R S T U V W X Y Z

Axel Rudi Pell - Fly To The Moon tab

-------------------------------------------------------------------------------
                             Fly To The Moon -Axel Rudi Pell
-------------------------------------------------------------------------------
Tabbed by: Gala-vine (Alza)

This is my First ever tab for ultimate guitar so here goes
could'nt find this song anywhere so decided to try and tab it myself.
the main parts of the song are there apart from the solo which i'm not great at doing.
so if anyone would like to tab the solo and or make a guitar pro version please do :)

Tuning: Flat

* = Palm mute


Intro
     * *   * *   * *   * *   * *    * *
eb|-------------------------------------------------------------|
Bb|-------------------------------------------------------------|
Gb|------2-----2-----2-----9------2-----2------2-1--------------|
Db|------2-----2-----2-----9------2-----2------2-1--2-----------|
Ab|------0-----0-----0-----7------0-----0-----------2-----------|
Eb|--2 2---2 2---2 2---2 2---2 2---2 2--------------------------|

end on      4db   4
            5ab   4
            6eb   2

Verse(s)
eb|-------------------------------------------------------------|
Bb|-------------------------------------------------------------|
Gb|------------7-----9------------------------------------------|
Db|--4----2----7-----9------------------------------------------|
Ab|--4----2----5-----7------------------------------------------|
Eb|--2----0-----------------------------------------------------|


Bridge/Fill
                                                    ***
eb|------------------------------------------------------|
Bb|------------------------------------------------------|
Gb|--6----2----4-----2-----4--------6-----2----4----444--|
Db|--6----2----4-----2-----4--------6-----2----4----444--|
Ab|--4----0----2-----0-----2--------4-----0----2----222--|
Eb|------------- ----------------------------------------|

Chorus
eb|---------------------------------------------------------------|
Bb|---------------------------------------------------------------|
Gb|--------------7--7----------9----------------------------------|
Db|--4-4---2-2---7--7----7--7--9----------------------------------|
Ab|--4-4---2-2---5--5----7--7--7----------------------------------|
Eb|--2-2---0-0------ ----5--5-------------------------------------|

                                     *  *  *
eb|-------------------------------------------------------------|
Bb|-------------------------------------------------------------|
Gb|--------------7--7-7-----------------------------------------|
Db|--4-4---2-2- -7--7-7---7--7--7----7--7--7--------------------|
Ab|--4-4---2-2---5--5-5---7--7--7----7--7--7--------------------|
Eb|--2-2---0-0------------5--5--5----5--5--5--------------------|



Intro x4
verse x2
intro x1
verse x2
bridgex4
chorusx2
intro x2
verse x2
Bridgex4
chorusx4
solo
Chorusx4
Intro x4
Tap to rate this tab
 
# A B C D E F G H I J K L M N O P Q R S T U V W X Y Z