Song name
# A B C D E F G H I J K L M N O P Q R S T U V W X Y Z

Axel Rudi Pell - Only The Strong Will Survive tab

-------------------------------------------------------------------------------
	        ONLY THE STRONG WILL SURVIVE - Axel Rudi Pell
-------------------------------------------------------------------------------
Tabbed by: CarlShahuesawick
Email: how bout not

Tuning: Drop-D (DADGBE)

Intro

e|---------------------------------------------------------------------------|
B|---------------------------------------------------------------------------|
G|--------------10----10-10-------6-6-6--------8-------------6-6-6-----------|
D|---3----x-----10----10-10-------6-6-6-6---6--8---1-1--1-1--6-6-6-6--1------|
A|---3----x------8-----8--8-------4-4-4-6---6--6---1-1--1-1--4-4-4-6--1------|
D|---3----x-----------------------------6---6------1-1--1-1--------6--1------|

Repeat 5 more times
There's another guitar in intro, but i don't feel like tabbing that out:)

Verse

Gtr. 1
e|---------------------------------------------------------------------------|
B|---------------------------------------------------------------------------|
G|---------6~----8~----------------------------------------------------------|
D|--3~-----6~----8~----------------------------------------------------------|
A|--3~-----4~----6~----------------------------------------------------------|
D|--3~-----------------------------------------------------------------------|

Gtr. 2
e|---------------------------------------------------------------------------|
B|---------------------------------------------------------------------------|
G|--10~----6~----8~----------------------------------------------------------|
D|--10~----6~----8~----------------------------------------------------------|
A|---8~----4~----6~----------------------------------------------------------|
D|---------------------------------------------------------------------------|

Chorus Same as Intro

You could do something and figure the rest.  I'm tired now.


| /  slide up
| \  slide down
| h  hammer-on
| p  pull-off
| ~  vibrato
| +  harmonic
| x  Mute note
===============================================================================
Tap to rate this tab
# A B C D E F G H I J K L M N O P Q R S T U V W X Y Z