Song name
# A B C D E F G H I J K L M N O P Q R S T U V W X Y Z

Axel Rudi Pell - Line tab

Help us improve GuitareTab! Take a short survey!
e--------------------------------------------------------|
b--------------------------------------------------------|
g--------------------------------------------------------|
d-13--15--17-----13--15--15-----12--13--15-----13--12--13|
a--------------------------------------------------------|
E--------------------------------------------------------|

e--------------------------------------------------------|
b--------------------------------------------------------|
g--------------------------------------------------------|
d-13--15--17-----13--15--15-----12--13--15-----13--12--13|
a--------------------------------------------------------|
E--------------------------------------------------------|

e--------------------------------------------------------|
b--------------------------------------------------------|
g--------------------------------------------------------|
d-8-----8--10--8-----------------------------------------|
a---------------------6-6--8-----------------------------|
E--------------------------------------------------------|
Related for Line tab