Song name
# A B C D E F G H I J K L M N O P Q R S T U V W X Y Z

Axelle Red - Manhattan Kaboul tab

Renaud
E|------------|--------------------|--------------------|----------------------|
B|------------|--------------------|--------------------|----------------------|
G|------------|-----0--------------|--------------------|-2-0------------------|
D|-2-2-3-2---0|-2-2---3-2-0---0-0-0|-2-2-2-3-2-0---0-2-2|-----3-2-2-0---0-0-2-2|
A|---------3--|-------------3------|-------------3------|-------------3--------|
E|------------|--------------------|--------------------|----------------------|


Axelle Red
E|------------|-------------|----------------------|----------------------|
B|------------|-------------|----------------------|----------------------|
G|------------|-----0-------|----------------------|----------------------|
D|-2-2-3-2---0|-2-2---320--0|-2-2-2-3-2-0---0-0-2-2|-2-2-2-2-0-0---0-0-2-2|
A|---------3--|----------3--|-------------3--------|-------------3--------|
E|------------|-------------|----------------------|----------------------|



AR                         R                        AR              R
E|------------------------|------------------------|---------------|--------------|
B|-----0-1-0--------------|-----0-1-0--------------|-----0-1--1----|--------------|
G|---2-------2---0--------|---2-------2---0--------|---2----------2|-----2-2-2-1-1|
D|-2-----------2---3-3-2-0|-2-----------2---3-3-2-0|-2----------2--|-0-0----------|
A|------------------------|------------------------|---------------|--------------|
E|------------------------|------------------------|---------------|--------------|



R                               AR
E|------------|----------------|--------------------|--------------------|
B|------------|----------------|--------------------|--------------------|
G|------------|-----0----------|--------------------|--------------------|
D|-2-2-3-2---0|-2-2---3-2-0---0|-2-2-2-3-2-0---0-2-2|-2-2-2-2-0-0---0-2-2|
A|---------3--|-------------3--|-------------3------|-------------3------|
E|------------|----------------|--------------------|--------------------|



AR                         R                        AR              R
E|------------------------|------------------------|---------------|--------------|
B|-----0-1-0--------------|-----0-1-0--------------|-----0-1--1----|--------------|
G|---2-------2---0--------|---2-------2---0--------|---2----------2|-----2-2-2-1-1|
D|-2-----------2---3-3-2-0|-2-----------2---3-3-2-0|-2----------2--|-0-0----------|
A|------------------------|------------------------|---------------|--------------|
E|------------------------|------------------------|---------------|--------------|



R                      AR                 R                    AR
E|--------------------|------------------|--------------------|--------------------|
B|-1-0----------------|-1-0--------------|-1-0----------------|--------------------|
G|-----2-0---2-0-0-0--|-----2-0---2-0-0-0|-----2-0---2-0-0-0--|--------------------|
D|---------2---------2|---------2--------|---------2---------2|-2-2-2-2-2-0---0-2-2|
A|--------------------|------------------|--------------------|-------------3------|
E|--------------------|------------------|--------------------|--------------------|


R
E|------------|----------------|----------------------|--------------------|
B|------------|----------------|----------------------|--------------------|
G|------------|-----0----------|----------------------|--------------------|
D|-2-2-3-2---0|-2-2---3-2-0---0|-2-2-2-3-2-0---0-0-2-2|-2-2-2-2-0-0---0-2-2|
A|---------3--|-------------3--|-------------3--------|-------------3------|
E|------------|----------------|----------------------|--------------------|






AR
E|------------|-------------|----------------------|----------------------|
B|------------|-------------|----------------------|----------------------|
G|------------|-----0-------|----------------------|----------------------|
D|-2-2-3-2---0|-2-2---320--0|-2-2-2-3-2-0---0-0-2-2|-2-2-2-2-0-0---0-0-2-2|
A|---------3--|----------3--|-------------3--------|-------------3--------|
E|------------|-------------|----------------------|----------------------|



AR                         R                        AR              R
E|------------------------|------------------------|---------------|--------------|
B|-----0-1-0--------------|-----0-1-0--------------|-----0-1--1----|--------------|
G|---2-------2---0--------|---2-------2---0--------|---2----------2|-----2-2-2-1-1|
D|-2-----------2---3-3-2-0|-2-----------2---3-3-2-0|-2----------2--|-0-0----------|
A|------------------------|------------------------|---------------|--------------|
E|------------------------|------------------------|---------------|--------------|
AR                         R                        AR              R
E|------------------------|------------------------|---------------|--------------|
B|-----0-1-0--------------|-----0-1-0--------------|-----0-1--1----|--------------|
G|---2-------2---0--------|---2-------2---0--------|---2----------2|--------------|
D|-2-----------2---3-3-2-0|-2-----------2---3-3-2-0|-2----------2--|-----3-3-3-0-2|
A|------------------------|------------------------|---------------|-0-0----------|
E|------------------------|------------------------|---------------|--------------|
Tap to rate this tab
 
# A B C D E F G H I J K L M N O P Q R S T U V W X Y Z