Song name
# A B C D E F G H I J K L M N O P Q R S T U V W X Y Z

Axewound - Exorchrist tab

Should be About 85% Accurate, only bits I'm not sure about are the Interlude
in the middle and the Harmonised bit, and also this is my first tab so
there's bound to be a few little things i stuffed up, but otherwise it should
sound pretty close to the original..

*Short Drum Intro*

*Guitar Intro*

D||-----------------|-----------|----------------|------------|
A||*----------------|-----------|----------------|------------|
F||-----------------|-----------|----------------|------------|
C||-4~~~~~0~~~~~2~~~|~~~~~~~~~~~|7~~~~~2~~~~~4~~~|~~~~~~~~~~~~|
G||*4~~~~~0~~~~~2~~~|~~~~~~~~~~~|7~~~~~2~~~~~4~~~|~~~~~~~~~~~~|
C||-4~~~~~0~~~~~2~~~|~~~~~~~~~~~|7~~~~~2~~~~~4~~~|~~~~~~~~~~~~|


D|----------------|-----------|----------------|------------||
A|----------------|-----------|----------------|-----------*||
F|----------------|-----------|----------------|------------||
C|4~~~~~0~~~~~2~~~|~~~~~~~~~~~|7~~~~~9~~~~~4~~~|~~~~~~~~~~~~||
G|4~~~~~0~~~~~2~~~|~~~~~~~~~~~|7~~~~~9~~~~~4~~~|~~~~~~~~~~~*||
C|4~~~~~0~~~~~2~~~|~~~~~~~~~~~|7~~~~~9~~~~~4~~~|~~~~~~~~~~~~||

*(Play that again^, but with this harmonised bit over the top)
*Guitar 1:*
D|----------------|--------------|----------------|-------------|
A|/14-12----------|--------------|/14-12----------|-------------|
F|-------13-------|--------------|-------13-13h14~|~~~~~~~~~~~~~|
C|----------14~~~~|~~~~~~~~~~~~~~|----------------|-------------|
G|----------------|--------------|----------------|-------------|
C|----------------|--------------|----------------|-------------|


D|----------------|--------------|----------------|-------------|
A|/14-12----------|--------------|----------------|-------------|
F|-------13-------|--------------|----------------|-------------|
C|----------14~~~~|~~~~~~~~~~~~~~|/11-9-----------|-------------|
G|----------------|--------------|------11-11h12~~|~~~~~~~~~~~~~|
C|----------------|--------------|----------------|-------------|


*Guitar 2:*
D|----------------|--------------|----------------|-------------|
A|----------------|--------------|----------------|-------------|
F|/16-14----------|--------------|/16-14----------|-------------|
C|-------14-------|--------------|-------14-14h16~|~~~~~~~~~~~~~|
G|----------16~~~~|~~~~~~~~~~~~~~|----------------|-------------|
C|----------------|--------------|----------------|-------------|


D|----------------|--------------|----------------|-------------|
A|----------------|--------------|----------------|-------------|
F|/16-14----------|--------------|----------------|-------------|
C|-------14-------|--------------|----------------|-------------|
G|----------16~~~~|~~~~~~~~~~~~~~|14-12-----------|-------------|
C|----------------|--------------|------14-/16~~~~|~~~~~~~~~~~~~|

*Post-Chorus*

D||-------------------|------------------|------------------|------------------||
A||*------------------|------------------|------------------|-----------------*||
F||-------------------|------------------|------------------|----------997766--|| x2
C||-4-4-44444-4-444-4-|4-4-7766--997766--|4-4-44444-4-444-4-|4-4-7766--------77||
G||*4-4-44444-4-444-4-|4-4-----77------77|4-4-44444-4-444-4-|4-4-----77-------*||
C||-4-4-44444-4-444-4-|4-4---------------|4-4-44444-4-444-4-|4-4---------------||
    * * ***** * *** *  * * ************** * * ***** * *** *  * * **************

*Verse*

D||-------------------|------------------|------------------|------------------------------|
A||*------------------|------------------|------------------|------------------------------|
F||-------------------|------------------|------------------|------------------------------|
C||-4-4-44444-4-------|----7766--997766--|4-4-44444-4-------|------------------------------|
G||*4-4-44444-4-------|--------77------77|4-4-44444-4-------|------------------------------|
C||-4-4-44444-4-------|------------------|4-4-44444-4-------|----0h1p0h1p0h1p0h1p0h1p0h1/5-|
  * * ****               ************** * * ****                               ^ I think they use
                                                                         a whammi effect here,
                                                     but if, like me, you don't have a whammi
                                                     bar, then this should still work well enough.

D|------------------|------------------|------------------|-------------------||
A|------------------|------------------|------------------|------------------*||
F|------------------|------------------|------------------|----------997766---|| x2
C|4-4-44444-4-------|----7766--997766--|4-4-44444-4-------|----7766--------77-||
G|4-4-44444-4-------|--------77------77|4-4-44444-4-------|--------77--------*||
C|4-4-44444-4-------|------------------|4-4-44444-4-------|-------------------||
  * * ****               ************** * * ****               **************

*Pre-Chorus*
*Guitar 1:*
D|------------------|------------------|
A|------------------|------------------|
F|------------------|------------------|
C|4~~~~~~~~~~~~~~~~~|~~~~~~~~~~~~~~~~~~|
G|4~~~~~~~~~~~~~~~~~|~~~~~~~~~~~~~~~~~~|
C|4~~~~~~~~~~~~~~~~~|~~~~~~~~~~~~~~~~~~|
                                ^Feel free to add a short pickslide in about here,
                                 i dont think there's one in the original,
                                 but it sounds fine either way...

*Guitar 2:*
D|-------------------------------|--------------------------------|
A|-------------------------------|--------------------------------|
F|-------------------------------|--------------------------------|
C|-------------------------------|--------------------------------|
G|-------------------------------|--------------------------------|
C|4h5p4h5T7p5p4h5p4h5T7p5p4h5p4h5|T7p5p4h5p4h5T7p5p4h5p4h5T7p5p4h5|


*Chorus* (similar to intro, but different)

D|------------------|-----------|------------------|------------|
A|------------------|-----------|------------------|------------|
F|------------------|-----------|------------------|------------|
C|4~~~~~0~~~~h2~2~~~|~~~~~~~~~~~|7~~~~~2~~~~h4~4~~~|~~~~~~~~~~~~|
G|4~~~~~0~~~~h2~2~~~|~~~~~~~~~~~|7~~~~~2~~~~h4~4~~~|~~~~~~~~~~~~|
C|4~~~~~0~~~~h2~2~~~|~~~~~~~~~~~|7~~~~~2~~~~h4~4~~~|~~~~~~~~~~~~|


D|------------------|-----------|----------------|-----------|
A|------------------|-----------|----------------|-----------|
F|------------------|-----------|----------------|-----------|
C|4~~~~~0~~~~h2~2~~~|~~~~~~~~~~~|7~~~~~9~~~~~4~~~|~~~~~~~~~~~|
G|4~~~~~0~~~~h2~2~~~|~~~~~~~~~~~|7~~~~~9~~~~~4~~~|~~~~~~~~~~~|
C|4~~~~~0~~~~h2~2~~~|~~~~~~~~~~~|7~~~~~9~~~~~4~~~|~~~~~~~~~~~|

*Post-Chorus* (only once this time)

*Verse* (again, only once)

*Pre-Chorus*

*Chorus*

*Interlude, Part 1*
*(Guitar 1 holds the last chord from the chorus, while guitar 2 plays this)* 

*Guitar 2:*
D||---------------------------------------------------------------||
A||*-------------------------------------------------------------*||
F||---------------------------------------------------------------|| x3
C||---------------------------------------------------------------||
G||*-------------------------------------------------------------*||
C||4h5p4h5T7p5p4h5p4h5T7p5p4h5p4h5T7p5p4h5p4h5T7p5p4h5p4h5T7p5p4h5||

D|---------------------------------------------------------------|
A|---------------------------------------------------------------|
F|---------------------------------------------------------------|
C|---------------------------------------------------------------|
G|---------------------------------------------------------------|
C|4h5p4h5T7p5p4h5p4h5T7p5p4h5p4h5T7p5p4h5p4h5T7p5p4--------------|

*Interlude, Part 2*

D||-------------|------------||
A||*------------|-----------*||
F||-------------|------------|| x4
C||-4-5-4-0-2-0-|4-5-4-0-0-2-||
G||*4-5-4-0-2-0-|4-5-4-0-0-2*||
C||-4-5-4-0-2-0-|4-5-4-0-0-2-||
                       * * *
*Final Pre-Chorus*

D|----------|
A|----------|
F|----------|
C|0~~~~2~~~~|
G|0~~~~2~~~~|
C|0~~~~2~~~~|

*Chorus x2*

*Post-Chorus x2*

*Outro*

D|------------------|
A|------------------|
F|------------------|
C|4-4-44444-4-------|
G|4-4-44444-4-------|
C|4-4-44444-4-------|
  * * ****
Tap to rate this tab
 
# A B C D E F G H I J K L M N O P Q R S T U V W X Y Z