Song name
# A B C D E F G H I J K L M N O P Q R S T U V W X Y Z

Axewound - Collide tab

Axewound - collide tab by SasukeB4mv
 Great new song by Axewound. thought id try my hand at tabbing it. this is my first tab 
so..... be gentle.  this is just the basic notes and such. maybe someone can use it to 
get the lead?

tuning drop c i think
intro- mostly piano then guitar starts.  theres also some kind of lead over this but im 
not sure what it is. just some variations on the high c i think.
d---------------------------------------------------------------------|
a---------------------------------------------------------------------|
f---------------------------------------------------------------------|
c-99 9 9999~~------99 9 9999~~------99 9 9999~~-----99 9 9999------7--|
g-99 9 9999~~------99 9 9999~~------99 9 9999~~-----99 9 9999------7--|
c-99 9 9999~~------99 9 9999~~------99 9 9999~~-----99 9 9999------7--|
  ** * ***         ** * ***         ** * ***        ** * ***
d-------------------------------------------------------------------|
a-------------------------------------------------------------------|
f-------------------------------------------------------------------|
c-55 5 5555~~------55 5 5555~~-----------44 4 4444~~----------------|
g-55 5 5555~~------55 5 5555~~-----------44 4 4444~~-------2 1 4 1--|
c-55 5 5555~~------55 5 5555~~-----------44 4 4444~~----------------|
  ** * ***         ** * ***              ** * ***
second time end with

d-------------------------------------|
a-------------------------------------|
f-------------------------------------|
c-------------------9~~~~~~~~~--------|
g---2 1 4 5 --------9~~~~~~~~~--------|
c-------------------9~~~~~~~~~--------|

verse 1

d---------------------------------------|
a---------------------------------------|
f---------------------------------------|
c--9---9~~------------------------------|
g--9---9~~------------------------------|
c--9---9~~------------------------------|
   *

pre Chorus

d------------------------------------------------------------------------------------|
a------------------------------------------------------------------------------------|
f------------------------------------------------------------------------------------|
c-9--9- 11- 12~~~~-9 11- 12- 9~~~~--5-5-7-9~~~~---7 7-9-11~~~-------9-11-9-11-12~~~--|
g-9----------------9----------------5-------------7----------------------------------|
c-9----------------9----------------5-------------7----------------------------------|


Chorus (same as intro)

d---------------------------------------------------------------------|
a---------------------------------------------------------------------|
f---------------------------------------------------------------------|
c-99 9 9999~~------99 9 9999~~------99 9 9999~~-----99 9 9999------7--|
g-99 9 9999~~------99 9 9999~~------99 9 9999~~-----99 9 9999------7--|
c-99 9 9999~~------99 9 9999~~------99 9 9999~~-----99 9 9999------7--|
  ** * ***         ** * ***         ** * ***        ** * ***
d-------------------------------------------------------------------|
a-------------------------------------------------------------------|
f-------------------------------------------------------------------|
c-55 5 5555~~------55 5 5555~~-----------44 4 4444~~----------------|
g-55 5 5555~~------55 5 5555~~-----------44 4 4444~~-------2 1 4 1--|
c-55 5 5555~~------55 5 5555~~-----------44 4 4444~~----------------|
  ** * ***         ** * ***              ** * ***
second time end with

d-------------------------------------|
a-------------------------------------|
f-------------------------------------|
c-------------------9~~~~~~~~~--------|
g---2 1 4 5 --------9~~~~~~~~~--------|
c-------------------9~~~~~~~~~--------|


verse 2
d---------------------------------------|
a---------------------------------------|
f---------------------------------------|
c--9---9~~------------------------------|
g--9---9~~------------------------------|
c--9---9~~------------------------------|
   *
pre Chorus

d------------------------------------------------------------------------------------|
a------------------------------------------------------------------------------------|
f------------------------------------------------------------------------------------|
c-9--9- 11- 12~~~~-9 11- 12- 9~~~~--5-5-7-9~~~~---7 7-9-11~~~-------9-11-9-11-12~~~--|
g-9----------------9----------------5-------------7----------------------------------|
c-9----------------9----------------5-------------7----------------------------------|


Chorus ( the last held note isnt played this time)

d---------------------------------------------------------------------|
a---------------------------------------------------------------------|
f---------------------------------------------------------------------|
c-99 9 9999~~------99 9 9999~~------99 9 9999~~-----99 9 9999------7--|
g-99 9 9999~~------99 9 9999~~------99 9 9999~~-----99 9 9999------7--|
c-99 9 9999~~------99 9 9999~~------99 9 9999~~-----99 9 9999------7--|
  ** * ***         ** * ***         ** * ***        ** * ***
d-------------------------------------------------------------------|
a-------------------------------------------------------------------|
f-------------------------------------------------------------------|
c-55 5 5555~~------55 5 5555~~-----------44 4 4444~~----------------|
g-55 5 5555~~------55 5 5555~~-----------44 4 4444~~-------2 1 4 1--|
c-55 5 5555~~------55 5 5555~~-----------44 4 4444~~----------------|
  ** * ***         ** * ***              ** * ***
second time end with

d-------------------------------------|
a-------------------------------------|
f-------------------------------------|
c-------------------9~~~~~~~~~--------|
g---2 1 4 5 --------9~~~~~~~~~--------|
c-------------------9~~~~~~~~~--------|

Epic Piano then.....

d-------------------------------------------------------------------------|
a-------------------------------------------------------------------------|
f-------------------------------------------------------------------------|
c--5555555555555555 44444444444444444444----------------------------------|
g--5555555555555555 44444444444444444444----------------------------------|
c--5555555555555555 44444444444444444444----------------------------------|
                    ********************

d-------------------------------------------------------------------------|
a-------------------------------------------------------------------------|
f-------------------------------------------------------------------------|
c--5555555555555555 4444444477779999--------------------------------------|
g--5555555555555555 4444444455557777--------------------------------------|
c--5555555555555555 44444444----------------------------------------------|


Chorus (same as intro)

d---------------------------------------------------------------------|
a---------------------------------------------------------------------|
f---------------------------------------------------------------------|
c-99 9 9999~~------99 9 9999~~------99 9 9999~~-----99 9 9999------7--|
g-99 9 9999~~------99 9 9999~~------99 9 9999~~-----99 9 9999------7--|
c-99 9 9999~~------99 9 9999~~------99 9 9999~~-----99 9 9999------7--|
  ** * ***         ** * ***         ** * ***        ** * ***
d-------------------------------------------------------------------|
a-------------------------------------------------------------------|
f-------------------------------------------------------------------|
c-55 5 5555~~------55 5 5555~~-----------44 4 4444~~----------------|
g-55 5 5555~~------55 5 5555~~-----------44 4 4444~~-------2 1 4 1--|
c-55 5 5555~~------55 5 5555~~-----------44 4 4444~~----------------|
  ** * ***         ** * ***              ** * ***
second time end with

d-------------------------------------|
a-------------------------------------|
f-------------------------------------|
c-------------------9~~~~~~~~~--------|
g---2 1 4 5 --------9~~~~~~~~~--------|
c-------------------9~~~~~~~~~--------|

                                  ^ hold till end



thanks. hope you guys enjoyed!
Tap to rate this tab
# A B C D E F G H I J K L M N O P Q R S T U V W X Y Z