Song name
# A B C D E F G H I J K L M N O P Q R S T U V W X Y Z

Axewound - Collide tab

---------------------------------------------------------------------------
                              Axewound - Collide 
---------------------------------------------------------------------------

Tabbed by: Metalrock4ever

Tuning: CGCFAD

Guitar Intro:
D|-----------------------------------------|
A|-----------------------------------------|
F|-------11~-------9~-------11~-------9-11-|
C|-99-99-9~--99-99-9~-99-99-9~--99-99------|
G|-99-99-9~--99-99-9~-99-99-9~--99-99------|
C|-99-99-9~--99-99-9~-99-99-9~--99-99------|

(For the last part, you can play one note or chords, if you want.)
D|-------------------------------------|
A|-------8~-------7~-------7~----------|
F|-------------------------------------|
C|-55-55-5~-55-55-5~-44-44-4~----------|
G|-55-55-5~-55-55-5~-44-44-4~----------|
C|-55-55-5~-55-55-5~-44-44-4~-9-8-11-8-|

D|-----------------------------------------|
A|-----------------------------------------|
F|-------11~-------9~-------11~-------9-11-|
C|-99-99-9~--99-99-9~-99-99-9~--99-99------|
G|-99-99-9~--99-99-9~-99-99-9~--99-99------|
C|-99-99-9~--99-99-9~-99-99-9~--99-99------|

(For the last part, you can play one note or chords, if you want.)
D|-----------------------------------------|
A|-------8~-------7~-------7~--------------|
F|-----------------------------------------|
C|-55-55-5~-55-55-5~-44-44-4~-----------9~-|
G|-55-55-5~-55-55-5~-44-44-4~-----------9~-|
C|-55-55-5~-55-55-5~-44-44-4~-9-8-11-12-9~-|


Verse:
(Listen to music to know when you come in)
Guitar 1:
D|------------------------------------------------------|
A|------------------------------------------------------|
F|------------------------------------------------------|
C|------11-12~-----11-9~-----7-9~-----9-11~-11h9h11-12~-|
G|---9-----------9---------5--------7-------------------|
C|-9-----------9---------5--------7---------------------|

Guitar 2:
D|---------------------------------------------------------|
A|---------------------------------------------------------|
F|-----------------------------------------------9h7h9-11~-|
C|-9x9x9x9x----9x9x9x9x----5x5x5x5x----7x7x7x7x------------|
G|-9x9x9x9x----9x9x9x9x----5x5x5x5x----7x7x7x7x------------|
C|-9x9x9x9x----9x9x9x9x----5x5x5x5x----7x7x7x7x------------|


Chorus:
D|-----------------------------------------|
A|-----------------------------------------|
F|-------11~-------9~-------11~-------9-11-|
C|-99-99-9~--99-99-9~-99-99-9~--99-99------|
G|-99-99-9~--99-99-9~-99-99-9~--99-99------|
C|-99-99-9~--99-99-9~-99-99-9~--99-99------|

D|-------------------------------------|
A|-------8~-------7~-------7~----------|
F|-------------------------------------|
C|-55-55-5~-55-55-5~-44-44-4~----------|
G|-55-55-5~-55-55-5~-44-44-4~----------|
C|-55-55-5~-55-55-5~-44-44-4~-9-8-11-8-|

D|-----------------------------------------|
A|-----------------------------------------|
F|-------11~-------9~-------11~-------9-11-|
C|-99-99-9~--99-99-9~-99-99-9~--99-99------|
G|-99-99-9~--99-99-9~-99-99-9~--99-99------|
C|-99-99-9~--99-99-9~-99-99-9~--99-99------|

D|-----------------------------------------|
A|-------8~-------7~-------7~--------------|
F|-----------------------------------------|
C|-55-55-5~-55-55-5~-44-44-4~-----------9~-|
G|-55-55-5~-55-55-5~-44-44-4~-----------9~-|
C|-55-55-5~-55-55-5~-44-44-4~-9-8-11-12-9~-|


Verse 2:
(Listen to music to know when you come in)
Guitar 1:
D|------------------------------------------------------|
A|------------------------------------------------------|
F|------------------------------------------------------|
C|------11-12~-----11-9~-----7-9~-----9-11~-11h9h11-12~-|
G|---9-----------9---------5--------7-------------------|
C|-9-----------9---------5--------7---------------------|

Guitar 2:
D|---------------------------------------------------------|
A|---------------------------------------------------------|
F|-----------------------------------------------9h7h9-11~-|
C|-9x9x9x9x----9x9x9x9x----5x5x5x5x----7x7x7x7x------------|
G|-9x9x9x9x----9x9x9x9x----5x5x5x5x----7x7x7x7x------------|
C|-9x9x9x9x----9x9x9x9x----5x5x5x5x----7x7x7x7x------------|


Chorus 2:
D|-----------------------------------------|
A|-----------------------------------------|
F|-------11~-------9~-------11~-------9-11-|
C|-99-99-9~--99-99-9~-99-99-9~--99-99------|
G|-99-99-9~--99-99-9~-99-99-9~--99-99------|
C|-99-99-9~--99-99-9~-99-99-9~--99-99------|

D|-------------------------------------|
A|-------8~-------8~-------7~----------|
F|-------------------------------------|
C|-55-55-5~-55-55-5~-44-44-4~----------|
G|-55-55-5~-55-55-5~-44-44-4~----------|
C|-55-55-5~-55-55-5~-44-44-4~-9-8-11-8-|

D|-----------------------------------------|
A|-----------------------------------------|
F|-------11~-------9~-------11~-------9-11-|
C|-99-99-9~--99-99-9~-99-99-9~--99-99------|
G|-99-99-9~--99-99-9~-99-99-9~--99-99------|
C|-99-99-9~--99-99-9~-99-99-9~--99-99------|

D|--------------------------------------|
A|-------8~-------7~-------7~-----------|
F|--------------------------------------|
C|-55-55-5~-55-55-5~-44-44-4~-----------|
G|-55-55-5~-55-55-5~-44-44-4~-----------|
C|-55-55-5~-55-55-5~-44-44-4~-9-8-11-12-|


Bridge: 
(Listen to when you come in)
D|-------------------------------------------------|
A|-------------------------------------------------|
F|---77-6677---------------------77-6677-----------|
C|-5555-5555-9x9x9x9x-9x9x9x9x-5555-5555-4444-4444-|
G|-5555-5555-9x9x9x9x-9x9x9x9x-5555-5555-4444-5577-|
C|-5555-5555-9x9x9x9x-9x9x9x9x-5555-5555-4444-4444-|


Final Chorus:
D|-----------------------------------------|
A|-----------------------------------------|
F|-------11~-------9~-------11~-------9-11-|
C|-99-99-9~--99-99-9~-99-99-9~--99-99------|
G|-99-99-9~--99-99-9~-99-99-9~--99-99------|
C|-99-99-9~--99-99-9~-99-99-9~--99-99------|

D|-------------------------------------|
A|-------8~-------8~-------7~----------|
F|-------------------------------------|
C|-55-55-5~-55-55-5~-44-44-4~----------|
G|-55-55-5~-55-55-5~-44-44-4~----------|
C|-55-55-5~-55-55-5~-44-44-4~-9-8-11-8-|

D|-----------------------------------------|
A|-----------------------------------------|
F|-------11~-------9~-------11~-------9-11-|
C|-99-99-9~--99-99-9~-99-99-9~--99-99------|
G|-99-99-9~--99-99-9~-99-99-9~--99-99------|
C|-99-99-9~--99-99-9~-99-99-9~--99-99------|

(Hold the last chord until the end of the piece.)
D|-----------------------------------------|
A|-------8~-------7~-------7~--------------|
F|-----------------------------------------|
C|-55-55-5~-55-55-5~-44-44-4~-----------9~-|
G|-55-55-5~-55-55-5~-44-44-4~-----------9~-|
C|-55-55-5~-55-55-5~-44-44-4~-9-8-11-12-9~-|

************************************

| /   slide up
| \   slide down
| h   hammer-on
| ~   vibrato
| +   harmonic
| x   Mute note
| b   Bend

************************************

If you have any comments/corrections, please say in either the comments box 
or leave me a message. Good luck and enjoy!
Tap to rate this tab
# A B C D E F G H I J K L M N O P Q R S T U V W X Y Z