Song name
# A B C D E F G H I J K L M N O P Q R S T U V W X Y Z

Axewound - Cold tab

Artist: AxeWound
Track:  Cold
Album:  Vultures

Tabbed by DarkenedShadow

Tuning: Drop A (A,E,A,D,F#,B)

any hints or tips email me
callummckay30@gmail.com

pleas rate and comment

*     = Palm Mute
\\    = slide down
//    = slide up
X     = Mute string

Intro: x2
Guitar 1

|-----------------------------------------------------------------|
|-----------------------------------------------------------------|
|-----------------------------------------------------------------|
|-----------------------------------------------------------------|
|-222-22--222-22--222-22--222-22--555-55--555-55--555-55--555-55--|
|-222-22--222-22--222-22--222-22--555-55--555-55--555-55--555-55--|
  *** *   *** *   *** *   *** *   *** *   *** *   *** *   *** *    

|------------------------------------------------------|
|------------------------------------------------------|
|------------------------------------------------------|
|------------------------------------------------------|
|--101010-1010--101010-1010--101010-1010--101010-1010--|
|--101010-1010--101010-1010--101010-1010--101010-1010--|
    * * *  *     * * *  *     * * *  *     * * *  *

|-----------------------------------------------------|
|-----------------------------------------------------|
|-----------------------------------------------------|
|-----------------------------------------------------|
|-101010--1010--101010--1010--999-99--999-99--12~-9~--|
|--9-9-9---9-9---9-9-9---9-9--999-99--999-99--12~-9~--|
   * * *   *     * * *   *    *** *   *** *

Guitar 2
                                                  
|----------------------------------------------------|
|----------------------------------------------------| 
|--999999999999999912121212121212121212121212121212--|
|--XXXXXXXXXXXXXXXX-X-X-X-X-X-X-X-X-X-X-X-X-X-X-X-X--|
|--777777777777777710101010101010101010101010101010--|
|----------------------------------------------------|  
                                                                    x2
|--------------------------------------------------------------------|
|--------------------------------------------------------------------|
|--1717171717171717171717171717171712121212121212121111111111111111--|
|---X-X-X-X-X-X-X-X-X-X-X-X-X-X-X-X-X-X-X-X-X-X-X-X-X-X-X-X-X-X-X-X--|
|--151515151515151515151515151515151010101010101010-9-9-9-9-9-9-9-9--|
|--------------------------------------------------------------------|  

|---------| ADD THIS AT THE
|---------| END OF THE SECOND TIME 
|--14-11--| AND ONLY STRUM 11/9 4x
|---X--X--| RATHER THAN 8
|--12--9--|
|---------|


Verse:
                                                                        x3
|------------------------------------------------------------------------|
|------------------------------------------------------------------------|
|------------------------------------------------------------------------|
|------------------------------------------------------------------------|
|--22222--22222--5h8p5p0---------22222--22222----------------------------|
|--22222--22222---------5h8p5p0--22222--22222--8\\\\\\\1-1////5-5////10--|

fourth time
|------------------------------------------------------------------------|
|------------------------------------------------------------------------|
|------------------------------------------------------------------------|
|------------------------------------------------------------------------|
|--22222--22222--5h8p5p0---------22222--22222------------7~~-9~~---------|
|--22222--22222---------5h8p5p0--22222--22222--8\\\\\\\1-----------------|
Tap to rate this tab
 
# A B C D E F G H I J K L M N O P Q R S T U V W X Y Z