Song name
# A B C D E F G H I J K L M N O P Q R S T U V W X Y Z

Axewound - Vultures tab

Tuning: Drop A (from low to high - A-E-A-D-F#-B)

Intro

B|---X-X---X-X-X-X-X---|
F#|--X-X---X-X-X-X-X---|
D|---X-X---X-X-X-X-X---| 
A|---X-X---X-X-X-X-0---|X2
E|---0-0---0-0-0-0-0---|
A|---0-0---0-0-0-0-0---|
     P P   P P P P P


B|---X-X---X-X-X-X-X------------|
F#|--X-X---X-X-X-X-X------------|
D|---X-X---X-X-X-X-X------------|
A|---X-X---X-X-X-X-X------------|X4
E|---0-0---0-0-0-0-0------------|
A|---0-0---0-0-0-0-0-3-3-3-3-3-3|
     P P   P P P P P H.H.H.H.H.H


B|--------------------------------------------------|
F#|-------------------------------------------------|
D|--------------------------------------------------|
A|---3-2----------5----5/7\5-2-3-2---------3---5/7\5|
E|---1-0---0-1-0--3----3/5\3-0-1-0---0-1-0-1---3/5\3|
A|-------0-0-1-0----00-------------0-0-1-0---00-----|
         P          PP                       PP


B|----------------------------------------------------|
F#|---------------------------------------------------|
D|----------------------------------------------------|
A|---3-2----------5----5/7\5-2-3-2---------3----------|
E|---1-0---0-1-0--3----3/5\3-0-1-0---0-1-0-1----3~~~~~|
A|-------0-0-1-0----00-------------0-0-1-0---00-------|
         P          PP                       PP A.H


Repeat this a few times...

Pre-Verse Riff


B|------------------------------------|
F#|-----------------------------------|
D|------------------------------------|
A|------------------------------------|X2
E|------------------------------------|
A|---1-0-0-0-1-0-0-0-3-0-0-0-1h3p1p0h1|
       P P P   P P P   P P P  

Verse Riff (Very Smilliar...)

B|------------------------------------|
F#|-----------------------------------|
D|------------------------------------|
A|------------------------------------|
E|-----------6------------------------|
A|---1-0-0-0---0-0-0-3-0-0-0-1h3p1p0h1|
       P P P   P P P   P P P  


B|---------------------|
F#|--------------------|
D|---------------------|
A|---------------------|X2
E|---6-6-6-6-----------|
A|---6-6-6-6-//////////|
     P P P P  Slide pick
       
Repeat Intro Riff

Chorus (I think...)


B|-----------------------------------------------------|
F#|----------------------------------------------------|
D|-----------------------------------------------------|
A|---0-1-3-1-0------------------0-1-3-1-0--------------|
E|---0-1-3-1-0---0-1-0-3-1-0-1--0-1-3-1-0-0-1-0--------|
A|---0-1-3-1-0---0-1-0-3-1-0-1--0-1-3-1-0-0-1-0-3~~~~~~|
                 P P P P P P P                  A.H


B|-------------------------------------------------|
F#|------------------------------------------------|
D|-------------------------------------------------|
A|---0-1-3-1-0--------------------0-1-3-1-0----3--2|
E|---0-1-3-1-0---0-1-0-3-1-0-1-0--0-1-3-1-0----3--2|
A|---0-1-3-1-0---0-1-0-3-1-0-1-0--0-1-3-1-0----3--2|
     P P P P P   P P P P P P P P    



B|-----------------------------------------------------|
F#|----------------------------------------------------|
D|-----------------------------------------------------|
A|---0-1-3-1-0------------------0-1-3-1-0--------------|
E|---0-1-3-1-0---0-1-0-3-1-0-1--0-1-3-1-0-0-1-0--------|
A|---0-1-3-1-0---0-1-0-3-1-0-1--0-1-3-1-0-0-1-0-3~~~~~~|
                 P P P P P P P                  A.H


B|-------------------------------------------------------|
F#|------------------------------------------------------|
D|--------------------------------------------------<2>V-|
A|---0-1-3-1-0--------------------0-1-3-1-0----3--2--0---|
E|---0-1-3-1-0---0-1-0-3-1-0-1-0--0-1-3-1-0----3--2--0---|
A|---0-1-3-1-0---0-1-0-3-1-0-1-0--0-1-3-1-0----3--2--0---|
     P P P P P   P P P P P P P P    





B|--------------------|
F#|-------------------|
D|--------------------|
A|--------------------|
E|--------------------|
A|---/////////////////|
     Slide Pick





B|--------------------------------------------------|
F#|-------------------------------------------------|
D|--------------------------------------------------|
A|--------------------------------------------------|Palm mute on all
E|--------------------------------------------------|
A|---0-0-0-0-000-0-0-0-0-000-0-0-0-0-000-0-0-0-0-000|




B|----------------------------------------------------|
F#|---------------------------------------------------|
D|----------------------------------------------------|
A|----------------------------------------------------|
E|----------------------------------------------------|
A|---0---0---0---0---0---0---0---0---0---0---0---0---0|


B|----------------------------------------------------------|
F#|---------------------------------------------------------|
D|----------------------------------------------------------|
A|----------------------------------------------------------|Palm mute on all
E|----------------------------------------------------------|
A|---0-0-0-0-000-0-0-0-0-000-0-0-0-0-000-0-0-0-0-000-0-0-000|

Repeat Chorus

Solo

B|-----------------------------------------------------|
F#|----------------------------------------------------|
D|-----------------------------------------------------|
A|---3---2---8---7-------------------------------------|
E|---3---2---8---7-------------------------------------|
A|---3---2---8---7-------------------------------------|

Guitar I
B|--10-12-13/17~--10-12-13/18~---15-17-17~--13-12-10---15-13-12---|
F#|---------------------------------------------------------------|
D|----------------------------------------------------------------|
A|----------------------------------------------------------------|
E|----------------------------------------------------------------|
A|----------------------------------------------------------------|

Guitar II
B|--13-15-17/20~--13-15-17/22~---18-20-20~--17-15-13---18-17-15---|
F#|---------------------------------------------------------------|
D|----------------------------------------------------------------|
A|----------------------------------------------------------------|
E|----------------------------------------------------------------|
A|----------------------------------------------------------------|


B|-----------------13-15-17-22------------------------------------|
F#|-------11-13-15------------------------------------------------|
D|--12-14---------------------------------------------------------|
A|----------------------------------------------------------------|
E|----------------------------------------------------------------|
A|----------------------------------------------------------------|

Guitar I
B|--10h14p10------1013141310------1013141310------101417~---------|
F#|---------12--12----------12--12----------12--12----------------|
D|------------11--------------11--------------11------------------|
A|----------------------------------------------------------------|
E|----------------------------------------------------------------|
A|----------------------------------------------------------------|


B|---17161513151617161513151617161513-----------------------------|
F#|-----------------------------------151312----------------------|
D|-------------------------------------------141211---------------|
A|----------------------------------------------------------------|
E|----------------------------------------------------------------|
A|----------------------------------------------------------------|


B|----------------------------------------------------------------|
F#|---------------------------------------------------------------|
D|----12111211121112/14~---121112/16B----121112/18B---------------|
A|----------------------------------------------------------------|
E|----------------------------------------------------------------|
A|----------------------------------------------------------------|


B|---1516171817161515161718171615-1112131413121111121314131211----|
F#|---------------------------------------------------------------|
D|----------------------------------------------------------------|
A|----------------------------------------------------------------|
E|----------------------------------------------------------------|
A|----------------------------------------------------------------|

B|----------------------------------------------------------------|
F#|--13141516151413141516151413-----------------------------------|
D|-----------------------------1213141514131211-------------------|
A|----------------------------------------------------------------|
E|----------------------------------------------------------------|
A|----------------------------------------------------------------|


B|---14h15p14p12h14h15p14/17----14h15p14/20------17-19-20/22------|
F#|-----------------------------------------19-20-----------------|
D|----------------------------------------------------------------|
A|----------------------------------------------------------------|
E|----------------------------------------------------------------|
A|----------------------------------------------------------------|

B|--2217------172217-------172217------172217----/2420191817/2420191817|
F#|-----19--19------19--19-------19--19------19------------------------|
D|--------19----------19-----------19----------19----------------------|
A|---------------------------------------------------------------------|
E|---------------------------------------------------------------------|
A|---------------------------------------------------------------------|

B|---13151617161513151612b~~1713------131713-------131617-131617--131617|
F#|-----------------------------15--15------15--15-------15-----15-----|
D|--------------------------------14----------14-----------------------|
A|---------------------------------------------------------------------|
E|---------------------------------------------------------------------|
A|---------------------------------------------------------------------|

B|-11121314131211121314131214--13161713-------131716171617-----131617161713-|
F#|--------------------------15b-------15--15------------15--15-----------15|
D|---------------------------------------14----------------14---------------|
A|--------------------------------------------------------------------------|
E|--------------------------------------------------------------------------|
A|--------------------------------------------------------------------------|

B|--------------13141516151413------------------------------------|
F#|-----12131415--------------15141312----------------------------|
D|---14-------------------------------14131211--------------------|
A|----------------------------------------------------------------|
E|----------------------------------------------------------------|
A|----------------------------------------------------------------|

B|----------13151617--------15161718--------17181920----172217------1722|
F#|-14151617--------15161718--------17181920----------19------19--19----|
D|--------------------------------------------------19----------19------|
A|----------------------------------------------------------------------|
E|----------------------------------------------------------------------|
A|----------------------------------------------------------------------|

B|----------------131617/241713--------------131720B----------------|
F#|----------------------------15----------15-----------------------|
D|-------------------------------14------14-------------------------|
A|---------161719------------------15--15---------------------------|
E|---171920--------------------------17-----------------------------|
A|------------------------------------------------------------------|


Repeat Intro

Ending


B|----------------------------------------------------|
F#|---------------------------------------------------|
D|----------------------------------------------------|
A|----------------------------------------------------|
E|----------------------------------------------------|
A|---0---0---0---0---0---0---0---0---0---0---0---0---0|

Rate And Comment
Have Fun!
Tap to rate this tab
 
# A B C D E F G H I J K L M N O P Q R S T U V W X Y Z