Song name
# A B C D E F G H I J K L M N O P Q R S T U V W X Y Z

Axewound - Burn Alive tab

Axewound - Burn Alive

Matt - Rhythm
Mike - Lead

intro (Matt tuck)

B|----------------------------------------------------|
F#|---------------------------------------------------|
D|-7--8--5--------------------------------------------|
A|-x--x--x---Four-times-------------------------------|
E|-5--6--3-----------------------------///------------|
A|--------------------------Pickslide--///------------|

(Mike Kingswood)

B|-----------------------------------------------------|
F#|----------------------------------------------------|
D|-11--12--8-------------------------------------------|
A|-x---x---x-----start-on-0:09---twice-----------------|
E|-9---10--6-------------------------------------///---|
A|------------------------------------pickslide-///----|

Pre-verse (Both guitars)

(Not sure about the hammer on pull off, but i believe its One Hammer On then pull off something)

B|----------------------------------------------------------------------|
F#|---------------------------------------------------------------------|
D|----------------------------------------------------------------------|
A|---------------------------------------------------0~~~~--------------|
E|-5------6-------5--------------------Four-times----0~~~~---pickslide--| 
A|---0-0-----0-0----0-0---1h3p1h2h5p20---------------0~~~~--------------|
     . .     . .    . .



verses  (Both guitars) 
   
(Not sure about the hammer on pull off, but i believe its One Hammer On then pull off something)

B|----------------------------------------------------|
F#|---------------------------------------------------|
D|----------------------------------------------------|
A|----------------------------------------------------|
E|-5------6-------5-----------------------------------| Keep repeating
A|---0-0-----0-0----0-0---1h3p1h2h5p20----------------|
     . .     . .    . .

"DOWN ON YOU!" 

B|---------------------|
F#|--------------------|
D|---------------------|
A|-0~~~~~--------------|
E|-0~~~~~--------------|
A|-0~~~~~--------------|


chorus (Both guitars)


B|----------------------------------------------------|
F#|---------------------------------------------------|
D|----------------------------------------------------|
A|----------------------------------------------------| twice
E|----------------------------------------------------|
A|-0-0-0-0-3p0-----0-0-0-0-5p0-------0-0-0-0-6p0------|

B|----------------|
F#|-5*------------|
D|--5*------------|
A|--5*------------|
E|----------------|
A|----------------|

B|----------------------------------------------------|
F#|---------------------------------------------------|
D|----------------------------------------------------|
A|----------------------------------------------------| twice
E|----------------------------------------------------|
A|-0-0-0-0-3p0-----0-0-0-0-5p0-------0-0-0-0-6p0------|

(stuck in the tremolo some what black metal part during the screamo)Help!

B|----------------------------------------------------|
F#|---------------------------------------------------|
D|----------------------------------------------------|
A|----------------------------------------------------|
E|----------------------------------------------------|
A|----------------------------------------------------|


After black metal part 

B|---------------------|
F#|--------------------|
D|---------------------|
A|-0--0--0--0--0-------|
E|-0--0--0--0--0-------|
A|-0--0--0--0--0-------|
   .  .  .  .  .



Bridge 

B|------------------------------------------|
F#|-----------------------------------------|
D|------------------------------------------|
A|-0--0--0--0~~~----------------------------|  keep repeating
E|-0--0--0--0~~~----------------------------|
A|-0--0--0--0~~~----------------------------|
   .  .  .  . 


B|-------------------------------------------------|
F#|------------------------------------------------|
D|-------------------------------------------------|
A|-0--0--0--0~--0--0--0--0----0-0------------------|  keep repeating
E|-0--0--0--0~--0--0--0--0----0-0------------------|
A|-0--0--0--0~--0--0--0--0----0-0------------------|
   .  .  .  .   .  .  .  .


(Mike's Solo i don't know) help

BAcking solo (Matt)

B|-----------------------------------------------------------------|
F#|----------------------------------------------------------------|
D|-----------------------------------------------------------------|
A|------------------------------------------------X--X--X--X-------| 
E|------------------------------------------------X--X--X--X-------|
A|-0-0-0-0-3p0-----0-0-0-0-5p0-------0-0-0-0-6p0--X--X--X--X-------|

B|---------------------------------------------------------|
F#|-----------------------------------------------5*-------|
D|------------------------------------------------5*-------|
A|------------------------------------------------5*-------| 
E|---------------------------------------------------------|
A|-0-0-0-0-3p0-----0-0-0-0-5p0-------0-0-0-0-6p0-----------|

outro (both guitars)

B|----------------------------------------------|
F#|---------------------------------------------|
D|----------------------------------------------|
A|-0--0--0--0-----0--0--0--0--------------------| 
E|-0--0--0--0-----0--0--0--0--------------------|
A|-0--0--0--0-----0--0--0--0--------------------|
      .  .  .        .  .  .

B|-------------------------------------------------|
F#|------------------------------------------------|
D|-------------------------------------------------|
A|-------------------------------------------------|  octave part idk
E|-------------------------------------------------|
A|-------------------------------------------------|
  

mike kingswood solo outro idk

done!
Tap to rate this tab
# A B C D E F G H I J K L M N O P Q R S T U V W X Y Z