Song name
# A B C D E F G H I J K L M N O P Q R S T U V W X Y Z

Axewound - Blood Money And Lies tab

Axewound - Blood Money And Lies

Drop A

I did the best i could. So dont blame me.


*I dont know the intro/chorus. its very fast.


I just figured out the rest.


Intro (possibly)


 B|-----------------------------------------|
 F#|----------------------------------------|
 D|-----------------------------------------|
 A|----------------------0~-----------------|  1st time
 E|-000777h101010h131313-0~-----------------|
 A|----------------------0-~----------------|

Repeat- 2nd time 12/ bend six string

Pre-verse 1/ chorus it self possibly


 B|-----------------------------------------------------------|
 F#|----------------------------------------------------------|
 D|-----------------------------------------------------------|
 A|----------------------palm mute thingy---------------------|
 E|----3h6-/5----3h6/5----------------------------------------|
 A|-00--------00----------------------------5po--4p0--3~------|
    ..        ..


Verse (Both guitars)

  B|-----------------------------------------------------------|
 F#|-----------------------------------------------------------|
  D|----------------8-5--11-8-9--------------------------------|  twice
  A|----------------x-x--x--x-x--------------------1-0-6-5-----|
  E|----------------6-3--9--6-7--------------------1-0-6-5-----|
  A|0-0-0-0-0-0-0-0---------------0-0-0-0-0-0-0-0--1-0-6-5-----|
    . . . . . . . .               . . . . . . . .

Bridge


  B|------------------------------------------------|
 F#|------------------------------------------------|
  D|------------------------------------------------|
  A|------------------------------------3~----------|  twice
  E|-6p3-----2h5-----------6p3-----2h5--3~----------|
  A|-----0-0-----0-0-0-0-0-----0-0------3~----------|
         . .     . . . . .     . .


 B|---------------------------------------------------------|
 F#|--------------------------------------------------------|
 D|---------------------------------------------------------|
 A|---------------------------------------------3~----------|  twice
 E|-6p3-----2h5--------------------6p3-----2h5--3~----------|
 A|-----0-0-----0-0-0-0-0-0-0-0-0------0-0------3~----------|
        . .     . .   . .   . .        . .

 B|---------------------------------------------------------------------------------------------------------|
 F#|--------------------------------------------------------------------------------------------------------|
 D|---------------------------------------------------------------------------------------------------------|
 A|-0-----------1--3--6---0-------------------0-------------------1--3--6---0-------------------------------|
 E|-0-----------1--3--6---0-------------------0-------------------1--3--6---0------------------------X-X-X--|
 A|-0--0-0-0-0--1--3--6---0--0-0-0-0-0-0-0-0--0--0-0-0-0-0-0-0-0--1--3--6---0---0-0-0-0-0-0-0-0------X-X-X--|
       . . . .               . . . . . . . .     . . . . . . . .                . . . . . . . .

 B|--------------------------------------------------------------------------------|
 F#|-------------------------------------------------------------------------------|
 D|--------------------------------------------------------------------------------|
 A|--1--3--6--0-------------------0--------------------1--3--6--0------------------|
 E|--1--3--6--0-------------------0--------------------1--3--6--0------------------|
 A|--1--3--6--0--0-0-0-0-0-0-0-0--0--0-0-0-0-0-0-0-0---1--3--6--0--0-0-0-0-0-0-0---|
                 . . . . . . . .     . . . . . . . .               . . . . . . .


Outro


Guitar 1

 B|----------------------------------------------------|
 F#|---------------------------------------------------|
 D|----------------------------------------------------|
 A|----------------------------------------------------|
 E|-00-00-00-00-00-00-00-00~---------------------------|
 A|-..-..-..-..-..-..-..-..----------------------------|


Guitar 2

 B|----------------------------------------------------|
 F#|---------------------------------------------------|
 D|----------------------------------------------------|
 A|----------------------------------------------------|
 E|----------------------------------------------------|
 A|-00-00-00-00-00-00-00-00~---------------------------|
    .. .. .. .. .. .. .. ..
Tap to rate this tab
 
# A B C D E F G H I J K L M N O P Q R S T U V W X Y Z