Song name
# A B C D E F G H I J K L M N O P Q R S T U V W X Y Z

Axis - Stand Up tab

Artist:Axis
Song:Stand up
Album:-
Tabbed by:Bobo

This song is rap-metal plus guitar solo but i havent learn the solo 
but ill tabbed the intro,verse and chorus...

Intro:

)-------------------------------------------------------------
)-------------------------------------------------------------
)-------------------------------------------------------------
)---------------------------------6-----------4---------------(2times)
)----7-5h7--5----7-5h7-4----7-5h7------7-5h7------------------
)--0-----------0----------0----------0------------------------


Verse:

)-------------------------------------------------------------
)-------------------------------------------------------------
)-------------------------------------------------------------(3times)
)-------------------------------------------------------------
)-----5h7---------5h7---------7p5-----------------------------
)--/------0-0-0-0-----0-0-0-0-----0-0-------------------------


Then:

)--------------------------------
)--------------------------------
)--------------------------------
)--------------------------------
)-----------5-6------------------
)--3--5-6-7----------------------


chorus:

)--------------------------------------------------
)--------------------------------------------------
)--7-------------------13-----14----11----13------- (2 times)
)--7--------9--------------------------------------
)--5--------7----------11-----12----9-----11-------
)-----------5--------------------------------------


thats it.....
Tap to rate this tab
# A B C D E F G H I J K L M N O P Q R S T U V W X Y Z