Song name
# A B C D E F G H I J K L M N O P Q R S T U V W X Y Z

Aya Hirano - First Good-bye tab

First Good-Bye

Vocals: Suzumiya Haruhi (Hirano Aya)
album Suzumiya Haruhi no yuutsu Drama CD - Sound around
Music/Arrangement: Shinzen Akatsuki-Satoru Kousaki
words:Aki Hata

intro
          se toca rapido
E|---------------------------------------------------------------|
B|--------14--14-0-0-13--13-0-0-11--11-0-0-9---9-0-7---7-6---6-7-|
G|---------------------------------------------------------------|
D|---------------------------------------------------------------|
A|---------------------------------------------------------------|
E|0/12/0---------------------------------------------------------|

E|---------------------------------------------------------------|
B|-7-0-0-9--9-0-0-6--6-0-0--6-6-0-6-6--1/24----------------------|   
G|-------------------------------------0/23----------------------|
D|---------------------------------------------------------------|
A|---------------------------------------------------------------|
E|---------------------------------------------------------------|

guitarra 1 y 2 al mismo tiempo al ritmo de la cancion  (00:06)

guitarra 1

E|-------------------------------13--------------|
B|-------14-14-----16-----14------------16\13----|
G|-13-13-13-----13-----13-----13-----13----------| 
D|-----------------------------------------------| 
A|-----------------------------------------------|
E|-----------------------------------------------|

guitarra 2

E|---------------------------------------------|
B|---------------------------------------------|
G|-6-------------------------------------------|
D|-6----------------------6--------------------|
A|-4----------------------6--------------------|
E|------------------------4--------------------|

------------------------------------------------------------------

guitarra 1

E|------------------------------------------------------------|
B|----------14----16------18\16\14-18\16\14-18\16\14-18\16\14-|
G|-13-13-13----13-----13--------------------------------------|
D|------------------------------------------------------------|
A|------------------------------------------------------------|
E|------------------------------------------------------------|

guitarra 2

E|------------------------------------------------------------|
B|------------------------------------------------------------|
G|-3----------------------------------------------------------|
D|-3----------------------4-----------------------------------|
A|-1----------------------4-----------------------------------|
E|------------------------2-----------------------------------|

------------------------------------------------------------------

guitarra 1

E|-------------------------------13--------------|
B|-------14-14-----16-----14------------16\13----|
G|-13-13-13-----13-----13-----13-----13----------| 
D|-----------------------------------------------| 
A|-----------------------------------------------|
E|-----------------------------------------------|

guitarra 2

E|---------------------------------------------|
B|---------------------------------------------|
G|-6-------------------------------------------|
D|-6----------------------6--------------------|
A|-4----------------------6--------------------|
E|------------------------4--------------------|

-------------------------------------------------------------------

guitarra 1
E|-----------------------------------------------------------|
B|----------14----16------18\16--16\14--14--16\14--14\13--13-|
G|-13-13-13----13-----13-------------------------------------|
D|-----------------------------------------------------------|
A|-----------------------------------------------------------|
E|-----------------------------------------------------------|


guitarra 2
E|------------------------------------------------------------|
B|------------------------------------------------------------|
G|-3----------------------------------------------------------|
D|-3----------------------4-----------------------------------|
A|-1----------------------4-----------------------------------|
E|------------------------2-----------------------------------|

-------------------------------------------------------------------

guitarra 1
E|-------------------------------------------------------------------------| 
B|-------------------------------------------------------------------------|
G|-13\15\13\15\13\15\13\15\13\15\13\15\13\15\13\15\13\15\13\15\13\15\13\15-|
D|-------------------------------------------------------------------------|
A|-------------------------------------------------------------------------|
E|-------------------------------------------------------------------------|

guitarra 2
E|-------------------------------------------------------------------------|
B|-------------------------------------------------------------------------|
G|-6-----------------------------------------------------------------------|
D|-6-----------------------------------------------------------------------|
A|-4-----------------------------------------------------------------------|
E|-------------------------------------------------------------------------|

--------------------------------------------------------------------------------

guitarra 1
E|------------------------------------------------------------------------------|
B|-13\14\13\14\13\14\13\14\13\14\13\14\13\14\13\14\13\14\13\14\13\14\13\14\S\0--|
G|------------------------------------------------------------------------------|
D|------------------------------------------------------------------------------|
A|------------------------------------------------------------------------------|
E|------------------------------------------------------------------------------|

guitarra 2
E|------------------------------------------------------------------------------|
B|------------------------------------------------------------------------------|
G|-6--6-6-----------------------------------------------------------------------|
D|-6--6-6-----------------------------------------------------------------------|
A|-4--4-4-----------------------------------------------------------------------|
E|------------------------------------------------------------------------------|

--------------------------------------------------------------------------------
empieza primer verso, esta es la manera en que se tocan los acordes,1 suelto
 y 12 veses con muting  
   C#               F   
E|---------------------------------------------------------------|
B|---------------------------------------------------------------|
G|-6xxxxxxxxxxxx-------------------------------------------------|
D|-6xxxxxxxxxxxx----2xx------------------------------------------|
A|-4xxxxxxxxxxxx----2xx------------------------------------------|
E|------------------1xx------------------------------------------|

   Motto wakariaeta nara
              F#             G#
E|---------------------------------------------------------------|
B|---------------------------------------------------------------|
G|---------------------------------------------------------------|
D|-xxxxxxxxx--4xxxxxxxxxxxx--6xxxxxxxxxxxx-----------------------|
A|-xxxxxxxxx--4xxxxxxxxxxxx--6xxxxxxxxxxxx-----------------------|
E|-xxxxxxxxx--2xxxxxxxxxxxx--4xxxxxxxxxxxx-----------------------|

Ima, nakayoku shiteru ano ko ga watashi de
E|--------------------------------------------- 
B|---------------------------------------------
G|---------------------------------------------
D|---------------------------------------------
A|---------------------------------------------
E|---------------------------------------------








C#               F   
Motto wakariaeta nara
              F#             G#
Ima, nakayoku shiteru ano ko ga watashi de
C#                   F 
Itsumo kaerimichi    Paradice
            F#             G#
Aisu wo namenagara    nandemo hanashita?
Baka na mousou nante    oshimai ni shinasai yo
Da-Da-Da Dan-Da-Dan forget
Kieru yo
Dakara iwanakute yokattanda yo ne
Totemo suki da to
Nanimo mitenai furi de    senaka miteta
Tsuraku natte hashiridasu
I miss you,Baby
Shitta koi ha jerashii no kuyashisa dake
Oite nigete itta kedo
Mou    Good-bye,bye! first love
Datte kimochi ga nareteta
Warai no tsubo datte onnaji datta shi
Doushite watashi ja naindarou
Kurikaesu no akita
Jinsei mudadzukai
Tsugi ni ikanakucha    hajimari wo ukeirete
Ba-Ba-Ba Ban-Ba-Ban restart
Hareruya
Usurete shimau kedo kanashiku ha naranai
Igai to genki!
Kokoro datte kawaru nara    ashita mo kawaru
Furikaette piisu-shite
I go,go my way
Wari to koi ha fuben da ne    rikutsu ja nai
Sore ga tanoshimeru made ha
Get many many time!!


Kokoro datte kawaru nara    ashita mo kawaru
Furikaette piisu-shite
I go,go my way
Wari to koi ha fuben da ne    rikutsu ja nai
Sore ga tanoshimeru made ha
Mitsumetai mite itai    douse muri da
Tsuraku natte hashiridasu
I miss you,Baby
Shitta koi ha jerashii no kuyashisa dake
Oite nigete itta kedo
Mou    Good-bye,bye! first love

  C# F  F# G# 
E|--------------------------------------------- 
B|---------------------------------------------
G|6---------------------------------------------
D|6--3--4--6----------------------------------------
A|4--3--4--6------------------------------------------
E|---1--2--4---------------------------------------
Tap to rate this tab
 
# A B C D E F G H I J K L M N O P Q R S T U V W X Y Z