Song name
# A B C D E F G H I J K L M N O P Q R S T U V W X Y Z

Ayla - Liebe tab

Hello. This is the only guitar part of this track. If you find mistakes, tell me. Thanx.

e|---------------------|--10----0-0----------|
H|--------12/13-12-10--|-----13-----8-10-12--|
G|--10-10--------------|---------------------|
D|---------------------|---------------------| x2
A|---------------------|---------------------|
E|---------------------|---------------------|

e|----------13-12-10-8-10---------------------|--10----0-0----------|
H|--10-10------------------------12/13-12-10--|-----13-----8-10-12--|
G|-------------------------10-10--------------|---------------------|
D|--------------------------------------------|---------------------|
A|--------------------------------------------|---------------------|
E|--------------------------------------------|---------------------|

e|---------------------|--10----0-0----------|
H|--------12/13-12-10--|-----13-----8-10-12--|
G|--10-10--------------|---------------------|
D|---------------------|---------------------|
A|---------------------|---------------------|
E|---------------------|---------------------|

e|----------13-12-10-8-10-----------------------------------------10----0-0-----------------|
H|--10-10------------------------12/13-12-10-8-10-8-8----10-12-13----13-------8-10-12-10-8--|
G|-------------------------10-10------------------------------------------------------------|
D|------------------------------------------------------------------------------------------|
A|------------------------------------------------------------------------------------------|
E|------------------------------------------------------------------------------------------|
This part repeats many times, i didn't count how many ^^

P.S. Sorry for my english, i'm forienger :)
Tap to rate this tab
 
# A B C D E F G H I J K L M N O P Q R S T U V W X Y Z