Guitaretab - guitar tabs
Song name
# A B C D E F G H I J K L M N O P Q R S T U V W X Y Z

Aynsley Lister - Balls Of Steel tab

6.Balls of Steel
Tabbed by peatemark@hotmail.com

GUITAR PEOPLE! -  BUY AYNSLEY LISTERíS  albums!! ( www.aynsleylister.co.uk)- the
man is a blues/rock machine!!!!!

(b) bend
(br) bend & release

Intro
|-3---2------|-3---2----------------|-3---2-------------|-3---2------|
|-3---3---2--|-3---3---2------------|-3---3---2---------|-3---3---2--|
|-0---2---2--|-0---2---2-------2~~~~|-0---2---2---------|-0---2---2--|
|-2---0---2--|-2---0---2------------|-2---0---2---------|-2---0---2--|
|-3-------0--|-3-------0---/4-------|-3-------0--/10xx\-|-3-------0--|
|-3----------|-3--------------------|-3-----------------|-3----------|

Riff1							
|-----------------|---------------||	
|-----------------|---------------||	
|-2-2-------------|---------------||	
|-2-2-4-2-5-2-4-2-|-5-2-4-2-5-----|| X 4	
|-0-0-0-0-0-0-0-0-|-0-0-0-0-0--34-||	
|-----------------|---------------||

V1 (w/riff 1)	
You know I got what it takes
But you tell me 
why the hell am I still standing here
Iíve had my fair old share of bad luck baby
Now Iím a stronger man I ainít got no fear

Riff 2					
|----------|-3--------3-3-3-||-----------------|----------------||	
|-3--------|-3--------3-3-3-||-----------------|----------------||	
|-2--------|-2--------0-0-3-||-2-2-------------|----------------||	
|-0--------|-0--------2-2-2-||-2-2-4-2-5-2-4-2-|-5-2-4-2-5------|| X 2	
|----------|----------3-3-3-||-0-0-0-0-0-0-0-0-|-0-0-0-0-0--34--||	
|----------|----------3-3-3-||-----------------|----------------||	
	
Riff 3
1.they say you gotta fall down to grease the wheel
2.not for the faint hearted           you gotta know the deal
|---------3--------|------2--------|-----------------|----------------|
|---------3--------|------3--------|-----------------|----------------|
|---------0--------|------2--------|-2-2-------------|----------------|
|---------2--------|------0--------|-2-2-4-2-5-2-4-5-|-2-5-4-5-4------|
|---------3--------|---------------|-0-0-0-0-0-0-0-0-|-0-0-0-0-0--34--|
|---------3--------|---------------|-----------------|----------------|

 Iím standing here strong now I got balls of steel				Riff 4
|---3--------|-------2--|-----------------|----------------|--------------|
|---3--------|-------3--|-----------------|----------------|-7-(br)5------|
|---0--------|-------2--|-2-2-------------|----------------|-7-----5------|
|---2--------|-------0--|-2-2-4-2-5-2-4---|-2-5-4-5-4------|----------7~~~|
|---3--------|----------|-0-0-0-0-0-0-0---|-0-0-0-0-0--34--|--------------|
|---3--------|----------|-----------------|----------------|--------------|


(w/ Riff  2 & 3)- same as 1st verse
I ainít been thru the mill but Iíve been damn close
I could tell you stories 
that you wouldnít wanna know
& I wouldnít change a single thing
I am what I am if you donít like it I can show you the door

not for the faint hearted 
you gotta know the deal
cause theyíll trip you up 
if you ainít got balls of steel

Riff 5					Riff 6
|---------------------------|-----------|-----------------|
|-7-5-------7-5-------------|-----------|-7-5------7-5----|
|-7-56------7-5-6---------2-|-----------|-7-56-----7-56---|
|------7~~~-------7~~~----2-|-X-3-------|------7~~------7-|
|---------------------3-4-0-|-----------|-----------------|
|---------------------------|-----------|-----------------|
[ Tab from: http://www.guitaretab.com/a/aynsley-lister/46303.html ]
Solo
Chords over solo (B)
|----------------------------|----------------------------|----------------|
|-10---10-10-10-10-10-10-10--|-10-10-10-10-10-------------|----------------|
|--9(b2)-9--9--9--9--9--9--9-|--9--9--9ó9---9(rb)7-----7--|----------------|
|----------------------------|----------------------9~~---|-9-7------------|
|----------------------------|----------------------------|----9ó7/5-------|
|----------------------------|----------------------------|---------7-77~~~|

|--------------------------------|-------------7-------------------------|
|--------------------------------|---10-7ó10(b2)---10(b2)-7--------------|
|--------------------------7-9-7-|9(b2)--------------------9~~-7~~----7~~|
|----------------7--ó7-9-7-------|--------------------------------99-----|
|------5-7-5-7/9---9-------------|-------------------------------------x\|
|-5-7-5--------------------------|---------------------------------------|

 (A)
|---------------|-------------------|---------------|--------------------|
|-5~------------|-5~-----7~-7-5-----|-5~------------|-------8------------|
|-5~------------|-5~-----7~-7-5-----|-5~------------|--7(b)----(rb)7-5~~-|
|----7-7-7-7-~~-|----7----------7---|---7-7-7-7-~~--|--------------------|
|---------------|-------------------|---------------|--------------------|
|---------------|-------------------|---------------|--------------------|
(B)
|-------7----------7---------------------------|-------------------------|
|-10(b)---10-7-10(b)--10-7---------------------|-------------------------|
|------------------------9-7ó--7ó9(b)-7--------|-/7----------------------|
|---------------------------9-----------9~~~~~-|----9-7------------------|
|----------------------------------------------|--------9-7/5------------|
|----------------------------------------------|--------------7~-777~~~--|


|---------------------|------------------------|--------------------------|
|-------------------2-|-----------2-2----------|--------------------------|
|-------------------2-|-----------2-2----------|--5-5-5---------5-5-5-----|
|-------------------2-|-----------2-2--/x\-----|--------7-5-7~~------7-5-7|
|-----5-7(b)7--5~~--0-|-----------0-0----------|--------------------------|
|-7-7-----------------|------------------------|--------------------------|

|---------------------|-3/5---------3/5--------|--3/5---3/5ó3/5--/5~~~----|
|-7ó-7-5---7ó7-5------|-3/5--7-5----3/5-7-5----|--------------------------|
|-7ó-7-5---7-7-5------|------7-5--------7-5----|--------------------------|
|--------7---------7--|----------7~---------7~-|--------------------------|
|---------------------|------------------------|--------------------------|
|---------------------|------------------------|--------------------------|

|-----------------|-----------------|
|-----------------|-----------------|	
|-2-2-------------|---------------2-|		
|-2-2-4-2-5-2-4-2-|-5-2-4-2-5-----2-|	X 4	
|-0-0-0-0-0-0-0-0-|-0-0-0-0-0--34-0-|	
|-----------------|-----------------|
	
You know I got what it takes
But you tell me
why the hell am I still standing here
Iíve had my fair old share of bad luck baby
Now Iím a stronger man
I ainít got no fear
No I ainít

They say you gotta fall down to grease the wheel
& Iím standing here strong now I got balls of steel (w/riff 4)
They say you gotta fall down to grease the wheel
& Iím standing here strong now I got balls of steel (w/riff 5)

End						
|--88-5--88-5--88-5ó-85------|-----|	
|--77-5--77-5--77-5--75------|-----|	
|--------------------------2-|-----|	
|--------------------------2-|-X-3-|	
|-----------------------34-0-|-----|	
|----------------------------|-----|
Related for Balls Of Steel tab