Guitaretab - guitar tabs
Song name
# A B C D E F G H I J K L M N O P Q R S T U V W X Y Z

Aynsley Lister - Angel O Mine tab

Angel o mine
Tabbed by peatemark@hotmail.com
Aynsley is the King of blues/rock!- Buy his albums www.aynsleylister.co.uk

Note:
(br) = bend and release
(b) = bend

Intro 
|----------------------|---------------------|---------0----------|
|--9/10--10~~~10-------|---------------------|----------2---------|
|-10/11-------11/9-7---|-7-------------------|-----------2--------|
|--0-----------0-----9-|-7-9-7-----7---------|-----2--------------|
|----------------------|-------9---7-9-7-----|--/4---4------------|
|----------------------|-----------------10--|---------------2----|

Riff 1				Riff 2
|---------------------|------|---------------------|-------------------|
|---------------------|------|---------------------|-5-/3-3--3---------|
|---------------7-6~~~|repeat|---------------7-6~~-|-6/-4-4--4---4/6~~-|
|----7-9--------7-7~~~|-riff1|----7-9--------7-7~~-|------5--5---5/7~~~|
|-7/9-----------------|------|-7/9-----------------|-------------------|
|--------7~~---7------|------|-------7~~~---7------|-------------------|

V 1  (w/riff 2 x 4)
I can see your face, but I know that youre not there
I can smell your body your scent still lingers in the air

Chorus (w/riff 3)
& Its been so long since Ive held you tight- Angel o mine
& its been so long, its been so long  I wanna hold you tonight
(Riff 3)
|--------------|----------|-------------|---------------------|	
|----------0---|----------|-------------|---------------------|	
|----------0---|-------0--|------0---2--|---------------7-6~~~|	
|----------2---|-------0--|----0-0---2--|----7-9--------7-7~~~|	
|---------2----|----0-----|---2------0--|-7/9-----------------|	
|--3-2-0-------|-0-2------|-3-----------|--------7~~---7------|	

V2 (w/riff 2)
I can hold you hand- when I close my eyes
I can feel your body I can feel it next, next to mine- yes I can

(W/riff 3)
I can hear you voice as you say goodnight- Angel of mine
& its been so long, its been so long  I wanna hold you tonight

Bridge
             D                A                Em
You make me feel like I never known & just for you, 
      Bm               A
I got so much love to show
U came along out of the blue & I would do anything for you



Solo 1 (w/riff 2)
|-----------------|--------------|-------------------------|--------------|
|--17(br)-17~~~~~-|-14(br)14~~~--|-12-14-14(br)-12-12-14~~-|-12~~~--------|
|-----------------|--------------|-------------------------|--------14~~~-|
|-----------------|--------------|-------------------------|--------------|
|-----------------|--------------|-------------------------|--------------|
|-----------------|--------------|-------------------------|--------------|

|-17/14~~~~----|-15-12--1214-12/10-10-12~~~~~-|-----12--1214-------------|
|--------------|------------------------------|-/15----------15-14~~~~~~~|
|--------------|------------------------------|--------------------------|
|--------------|------------------------------|--------------------------|
|--------------|------------------------------|--------------------------|
|--------------|------------------------------|--------------------------|

|------------------|
|------------------|
|-14(br)--14--/11~~|
|------------------|
|------------------|
|------------------|

V3 (w/riff 2)
Im lying here alone an empty space where you should be 
I know it wont be long till your lying here again with me- no it wont

Chorus (w/riff 3)
& its been so long since ive held you tight- Angel o mine
& its been so long, its been so long  I wanna hold you tonight
[ Tab from: http://www.guitaretab.com/a/aynsley-lister/46305.html ]
Solo 2 - 4.00
|------------------------------------|-----------------------------------|
|------------------------------------|-----------------------------------|
|------------------------------------|------7~~~-9---9(br)-7--7-9~~~~----|
|------------------------------------|-----------------------------------|
|------2-52~~~~--/5-7(br)-7-5-7~~~~~|---5-------------------------------|
|-/2-5-------------------------------|-7---------------------------------|

|---------------|---------------------|----------------------------------|
|---------------|-10(b2)~~~~~~--------|-----15-17(b)---17(br)15--1517~~~~|
|---7-9(b2)~~~~~|---------------------|--/16-----------------------------|
|-9-------------|---------------------|----------------------------------|
|---------------|---------------------|----------------------------------|
|---------------|---------------------|----------------------------------|

|-----------------------------------|-----7-------7--------7---------7---|
|----1517(b)-1715--17-15-----------|----7---10(b)--710(b)--7-10(b)---7-|
|-/16--16------------------16-14----|-9(b)-------------------------------|
|--------------------------------16-|------------------------------------|
|-----------------------------------|------------------------------------|
|-----------------------------------|------------------------------------|

|------7------7------7-7-----7-7-|-----------------------------------|
|-----7------7-------7-7-----7-7-|-10(br)-10(br)88/10-~~~~----------|
|-9(b)-----9(b)---9(b)----9(b)---|-----------------------------------|
|--------------------------------|-----------------------------------|
|--------------------------------|-----------------------------------|
|--------------------------------|-----------------------------------|


4.30
|----10-12/14--14-15-12~~~~~--|-----14---17(br)-17---14--17---|
|-12--------------------------|---17--------------------------|
|-----------------------------|-16----------------------------|
|-----------------------------|-------------------------------|
|-----------------------------|-------------------------------|
|-----------------------------|-------------------------------|

|-17(br)17(br)17(br)17(br)--|-17(br)-17-1419(b2)~~~~--|-17(br)14----|
|------------------------------|--------------------------|--------------|
|------------------------------|--------------------------|--------------|
|------------------------------|--------------------------|--------------|
|------------------------------|--------------------------|--------------|
|------------------------------|--------------------------|--------------|

|-19-17-------------|----------1717-----1717------1717-------1717----1717-|
|------19-17--19-17-|-/15-17(b2)---17(b2)----17(b2)----17(b2)----17(b2)---|
|-------------------|-----------------------------------------------------|
|-------------------|-----------------------------------------------------|
|-------------------|-----------------------------------------------------|
|-------------------|-----------------------------------------------------|

|--------------------------|-----------|----------------------------|
|-17(br)1517(br)-1517~~~~-|--Riff-3---|----------------------------|
|--------------------------|---x 1-----|----------------------------|
|--------------------------|-----------|----------------------------|
|--------------------------|-----------|--0-7~~~~-5~~~~-4~~~--2~~---|
|--------------------------|-----------|----------------------------|

|--------52-------2-----------------|
|------3----3-----3-----------------|
|----4--------4---4-----------------|
|--4--------------4-----------------|
|-2---------------2-----------------|
|-----------------------------------|
Related for Angel O Mine tab