Guitaretab - guitar tabs
Song name
# A B C D E F G H I J K L M N O P Q R S T U V W X Y Z

Aynsley Lister - Soundman tab

Soundman
Tabbed by peatemark@hotmail.com

Everyone!  BUY THIS MANS RECORDS! Ė HE ROCKS!- www.aynsleylister.co.uk

Note
(b) = bend
(br) = bend and release

(Riff 1)
|--/7-/7-0-0-0-000-0-----|--/7-/7-0-0-0-000-0--5-3-|-0-0-0-0-0--0--0-0---|
|--/8-/8-0-0/5-555-0-----|--/8-/8-0-0/5-555-5------|-0-5-0-5-0--3--3/5---|
|--------------------2-0-|-------------------------|---------------------|
|------------------------|-------------------------|---------------------|
|------------------------|-------------------------|---------------------|
|-0----------------------|-0-----------------------|---------------------|

|-/12------12-|---7-7-0-0-0-0-0-|------------------|---0---0-------------|
|----15(b2)---|---8-8-0-0/5-5-5-|------------------|---3/5ó5/30----------|
|-------------|-----------------|--44--44--66--88--|------------2-0------|
|-------------|-----------------|--55--55--77--99--|----------------2----|
|-------------|-----------------|------------------|---------------------|
|-------------|-0---------------|------------------|-0-------------------|	

Well excuse me please your standing in my way
I donít care who you are I donít care what you say
They call me the soundman & Iím having a real bad day

Verse riffs	
	                                 trill    ÖSoundman    trill
|-------------|-------------|------------------|-------------|-----------|
|-/3-3--------|-------------|-----3------------|-3333--22-11-|-----------|
|-/4ó4/2-0----|-2320-2-0--2-|-2/4---4/2-0------|-4444--33-22-|-----------|
|----------22-|---------2---|-------------2-02-|-------------|------0-2--|
|-------------|-------------|------------------|-------------|---02------|
|-------------|-------------|------------------|-------------|-0-------0-|

Well hey you over there turn that damn thing down
Ainít u been told before you donít need it that damn loud
Hey iím the soundman and ill pull your plugs right out

Chorus
Donít you know donít ya know that I got control over you
Donít you know donít ya know that Iíll pull the plug on you

|--/7-/7-0-0-0-000-0-----|--/7-/7-0-0-0-000-0--5-3-|-0-0-0-0-0--0--0-0---|
|--/8-/8-0-0/5-555-0-----|--/8-/8-0-0/5-555-5------|-0-5-0-5-0--3--3/5---|
|--------------------2-0-|-------------------------|---------------------|
|------------------------|-------------------------|---------------------|
|------------------------|-------------------------|---------------------|
|-0----------------------|-0-----------------------|---------------------|

|---7-7-0-0-0-0-0-|--------------------|-0---0----------|---------|	
|---8-8-0-0/5-5-5-|--------------------|-3/5ó5/30-------|---------|	
|-----------------|--44--44--66--88----|----------2-0---|----0----|	
|-----------------|--55--55--77--99----|--------------2-|-0-2--22~|	
|-----------------|--------------------|----------------|---------|	
|-0---------------|-----------------0--|----------------|---------|	

[ Tab from: http://www.guitaretab.com/a/aynsley-lister/46358.html ]
flick that switch turn that dial Well set it on number 2
its sounds alright to me donít care what you normally do
coz iím the soundman & I know goddam more than you
coz iím the soundman & I know goddam more than you

Donít you know donít ya know that I got control over you
Donít you know donít ya know that Iíll pull the plug on you

Solo 
 trill
|------|----------------------------------------|------------------------|
|------|----------------------------------------|----------9ó12(br)------|
|------|-9-11-9-11(b)-11(b)-9(b)-9(b)-----9-----|-9----911---------------|
|-7979-|-----------------------------11~~~-11~~~|---11-------------------|
|------|----------------------------------------|------------------------|
|------|----------------------------------------|------------------------|

|-------------------|-------------------13(b2)-------12------------------|
|-12(br)ó12(b)~~~~~~|-14-12--------12-14----------------14~~~14~~~~------|
|-------------------|------13-12-13--------------------------------------|
|-------------------|----------------------------------------------------|
|-------------------|----------------------------------------------------|
|-------------------|----------------------------------------------------|

|------12-----------|-------------------------------------------|
|-12-14ó-14~~~14~~~~|-19(b2)-19(b2)-19(b2)ó19(b2)-18(b2)-19(b2)-|
|-------------------|-------------------------------------------|
|-------------------|-------------------------------------------|
|-------------------|-------------------------------------------|
|-------------------|-------------------------------------------|

|------------|-----------------|----1212-----------------|----------------|
|------------|--17(b2)--17-----|-15-1212--15-12--12------|--------15-12---|
|------------|------------18~~~|---------------14--14-12-|-14(b2)----12-\-|
|------------|-----------------|-------------------------|----------------|
|------------|-----------------|-------------------------|----------------|
|------------|-----------------|-------------------------|----------------|

shuffle bit					or this way?
|----------------------|----------------------|---------------------------|
|----------------------|----------------------|---------------------------|
|----------------------|----------------------|---------------------------|
|----------------------|----------------------|-20-------2-5--------2~~---|
|-4-5-6ó7~~-----7-10~~~|-----7~~~-7------7-10-|----20-50-----20-50--------|
|----------7-10--------|-7-10-------7-10------|---------------------------|

|-----------------------------|---------12--------12-------12------12-----|
|-12~~---------12ó14(br)12----|-------12--------12-------12------12-------|
|-12~~---------12ó14(br)12ó12-|-14(b2)----14(b2)----14(b2)---14(b2--------|
|-----14-12-14----------------|-------------------------------------------|
|-----------------------------|-------------------------------------------|
|-----------------------------|-------------------------------------------|

Donít you know donít ya know that I got control over you
Donít you know donít ya know that Iíll pull the plug on you
Related for Soundman tab