Guitaretab - guitar tabs
Song name
# A B C D E F G H I J K L M N O P Q R S T U V W X Y Z

Aynsley Lister - What U Got 4 Me tab

What u got 4 me
Tabbed by peatemark@hotmail.com

Check out www.aynsleylister.co.uk - the man rocks!

As usual - tune down half a step to Eb
(b) bend  - number indicates  bend strength ( ie b2 = full step bend), (b1 = half step bend)
(br) bend & release
(pb) pre-bend and release
" = repeat previous bar

Intro (Riff 1)
|-----------|-------------------|----------------|--------------|
|-----------|-------------------|----------------|--------------|
|-6-xxx-6---|--4-xxx----34-34~--|-6-xxx-6---xx---|-4-444--------|
|-6-xxx-6---|--4-xxx--4---------|-6-xxx-6--/xx\--|-4-444--4-----|
|-4-xxx-4---|--2-xxx--4---------|-4-xxx-4--------|-2-222--4-----|
|-----------|---------2---------|----------------|--------2-----|

(Riff 2)
  C#			  B	       F#
|-----------------------|------------------------|	(x 4)
|-----------------------|------------------------| 	
|-6666--66666666-6666--|-4444--4444-------------|	1st time w/lick 1
|-xxxx--xxxx-xxxx-xxxx--|-xxxx--xxxx--4444--4444-|	2nd time w/lick 2
|-4444--4444-4444-4444--|-2222--2222--xxxx--xxxx-|	3rd time w/lick 3
|-----------------------|-------------2222--2222-|	

(Lick 1)		(Lick 2)		    (Lick 3)
|----------------|-----7-9~~9-7------|------------------------|
|-7(b1)-7-5------|-/7-9--------9-7~~-|--11(br)9---------------|
|-----------6~~~~|-------------------|--11----9---------------|
|----------------|-------------------|----------11-9-11-------|
|----------------|-------------------|------------------------|
|----------------|-------------------|------------------------|

Verse 1 (w/riff 1)							
|-----------|-------------|----------------|------------------|
|-----------|-------------|----------------|------------------|
|-6-xxx-6---|--4-xxx------|-6-xxx-6---xx---|-4-xxx------------|
|-6-xxx-6---|--4-xxx--4--|-6-xxx-6--/xx\--|-4-xxx--4---------|
|-4-xxx-4---|--2-xxx--4--|-4-xxx-4--------|-2-xxx--4----/12\-|
|-----------|---------2---|----------------|--------2---------|
I got no money I cant live without it no take no give
Now tell me what am I gonna do
Like blood from a stone candy from a baby
I ain't gonna get gonna gonna get a penny from you

Chorus
(Riff 3)
  E                B							    
|--------------|---------|------------------------|-------------------|	
|--------------|---------|---------------5~~------|---------5~~-------|	
|------1-------|--4------|---------------4~~------|---------4~~-------|	
|------2-------|--4------|---------------3--------|---------3---------|	 
|------2-------|--2------|----2--2/4-444-4--------|-2/4-444-4---------|	
|------0-------|---------|-4----------------0-2-4-|-------------0-2-4-|	
So don't take my time      set   me    free


   E     	   F#	     
|-----------------|-----|---------------------------|---------------------|
|-----------------|-----|------5----5----5--5----55-|---5------9~~--------|
|-------1---------|-----|----xx4x--x4xx--4xx4--xx44-|-xx4x-----9~~--------|
|-------2---------|--4--|----xx3x--x3xx--3xx3--xx33-|-xx3x--/11-----11\---|
|-------2---------|--4--|------4----4----4--4----44-|---4-----------------|
|-------0---------|--2--|---------------------------|---------------------|
U want to lay  it on the line  So whaddya got  for me

Verse2 (w/riff 1)
You want everything but your givin just a little 
I don't know why but I no that this ain't right
Like a piggy in the middle, stuck in the mud
I can't sleep at all it's keeping me up all night

Chorus (w/riff 3)
So don't take my time set me free
[ Tab from: http://www.guitaretab.com/a/aynsley-lister/47902.html ]
   E     	   F#	     A		    B 
|-----------------|--------|--------5-----|-------7--------|
|-----------------|--------|--------------|----------------|
|-------1---------|--------|-----6----6---|----8-----8-----|
|-------2---------|--4-----|--7-----------|-9--------------|
|-------2---------|--4-----|--7-----------|-9--------------|
|-------0---------|--2-----|--5-----------|-7--------------|
U want to lay___ it on the line  So whaddya got  whaddya got 

|-------------------------|-------------------------------------|
|----5----5----5--5----55-|---5-------9~------------------------|
|--xx4x--x4xx--4xx4--xx44-|-xx4x------9~--11-9~-----------------|
|--xx3x--x3xx--3xx3--xx33-|-xx3x---/11----11-9~--11-9~----------|
|----4----4----4--4----44-|---4------------------11-9~----------|
|-------------------------|-----------------------------9~~~----|
got me me

Solo - Wah
|----------|--------|--------|---------------------|-------------|	
|----------|--------|--------|--------5-7-5(b1)~~~-|-5-7-5-------|	
|----------|--------|--------|-6~~-6---------------|-------6~~~--|	
|-8~~------|-7~~----|-6~~----|---------------------|-------------|	
|----------|--------|--------|---------------------|-------------|	
|----------|--------|--------|---------------------|-------------|	

|--------------------------------|-----------14(b2)~~~~~~-14-12~~---12---|
|12(br)-12(br)-12(br)12(br)12(br)|-12(b2)~~~~----~----------------1414~-|
|--------------------------------|---------------------------------------|
|--------------------------------|---------------------------------------|
|--------------------------------|---------------------------------------|
|--------------------------------|---------------------------------------|

|-12---------------9------9-------9---------9-----------|----------------|
|---14/12--9-12(b2)-9-12-9-12(b2)--9-12(b2)---9-12(b2)--|---------9-12/14|
|-------------------------------------------------------|----9-11--------|
|-------------------------------------------------------|-/11------------|
|-------------------------------------------------------|----------------|
|-------------------------------------------------------|----------------|

|------12--12--12------------------|----------12(b1)-14(br)12---------|
|-12-14--14--14-14--1212~~~~14~~~~-|-12-14-12----------------14~~-----|
|----------------------------------|----------------------------------|
|----------------------------------|----------------------------------|
|----------------------------------|----------------------------------|
|----------------------------------|----------------------------------|

|--------19----------19(b2)~~~~--1916-----------|---------------------|	
|-19(b2)----19(br)17-----------------1917-19----|---------------------|	
|-------------------------------------------16~~|---------------------|	
|-----------------------------------------------|---9/11~~~-----------|	
|-----------------------------------------------|---------------------|	
|-----------------------------------------------|---------------------|	

Lick 4
|------------------|
|-----9~~----------|
|-----9~~----------|
|--/11-------------|
|-----------2-4~~~-|
|---------4--------|


Verse3 (w/riff 1)
Mystery Lyrics?
U don't understand & you don't give a damn
Pushed to one side now I aint nothing new	(w/lick 4)
I aint that better I just want better 
things just don't seem the way they used to be
I'm the one the only one the only one in charge of my destiny

Chorus (w/riff 3)
So don't take my time set me free
U want to lay it on the line
So whaddya got for me
Related for What U Got 4 Me tab