Song name
# A B C D E F G H I J K L M N O P Q R S T U V W X Y Z

Ayreon - The Charm Of The Seer tab

e|-------------------|-17------------------|---------------------|
B|-19----17----17-19-|----19-17----19-17---|---------------------|
G|----------19-------|----------19---------|-19-18-19--16--18-15-|
D|-------------------|---------------------|---------------------|
A|-------------------|---------------------|---------------------|
E|-------------------|---------------------|---------------------|

e|-------------------|-----------------------|-------------------|
B|-------------------|-19-17-----------------|-------------------|
G|-16----18-16-16-19-|-------19-18-19-19--18-|-(18)-18-19-16-----|
D|-------------------|-----------------------|-------------------|
A|-------------------|-----------------------|-------------------|
E|-------------------|-----------------------|-------------------|
Tap to rate this tab
# A B C D E F G H I J K L M N O P Q R S T U V W X Y Z