Song name
# A B C D E F G H I J K L M N O P Q R S T U V W X Y Z

Ayreon - Who Wants To Live Forever tab

This is the solo tabbed to the best of my ability. I'll add the rhythm tabs if their are 
requests. They should be easy to figure out though.

This solo has an echo effect, and some reverb too.

--------------------------------------------------------------------------|
-------16b(18)r-----/13h14h13\--------------------------------------------|
-----------------------------------13~--12----11~------13*~---------------|
-------------------------------------------11----------------10---8-------|
----------------------------------------------------------------------11~-|
--------------------------------------------------------------------------|
                                           PM


----------------------------------13-15-16~------13---------------------|
------------------------------13---------------13--13--16b(18)----------|
------------------------------------------------------------------------|
------------------------------------------------------------------------|
----8/10~---------------------------------------------------------------|
-----------10--8---4~b(6)-----------------------------------------------|

--------------------------13-----------13-15-16-18b(20)r-16-18b(20)~------|
------13--11----------13----13~-----13------------------------------------|
--------------13--12------------------------------------------------------|
--------------------------------------------------------------------------|
--------------------------------------------------------------------------|
--------------------------------------------------------------------------|

Rhythm part (this part goes in after that last part I think, played by guitar 2) It's all palm-muted
----------------------------------------------------------|
----------------------------------------------------------|
----------------------------------------------------------|
---------------------------9-9----------------------------|
------7-7-10-10-9-9-10-10------10-10-9-9-10-10------------|
----------------------------------------------------------|

Solo (continued)

-------13--15--16--18--20-21b(23)--20-------20-18-16-20--------|
----13-------------------------------------------------18~-----|
---------------------------------------------------------------|
---------------------------------------------------------------|
---------------------------------------------------------------|
---------------------------------------------------------------|


b - bend
(#)- note to bend to
r - release
/ - up slide
\ - down slide
PM - palm mute
* - pinch harmonic
~ - vibrato/let ring

AIM = Lollercoaster616
Tap to rate this tab
 
# A B C D E F G H I J K L M N O P Q R S T U V W X Y Z