Guitaretab - guitar tabs
Song name
# A B C D E F G H I J K L M N O P Q R S T U V W X Y Z

Ayreon - Temple Of The Cat tab

Ayreon - 'Temple of the Cat'

from the album 'The Universal Migrator Part 1 - The Dream Sequencer'
vocals by Jacqueline Govaert

"It is the 8th century. I am a Mayan girl heading for the Jaguar Temple in Tikal on the central American continent."
_________________________________________________________________________


Intro
[ Tab from: http://www.guitaretab.com/a/ayreon/35670.html ]
|-0-------0-------|-0-------0-------|
|---0-------0-----|---0-------0-----|
|-----2-1-----2-1-|-----2-1-----2-1-|
|-----------------|-----------------|
|-----------------|-----------------|
|-----------------|-----------------|
riff A

|-0---0-0-0---0-0-|-0---0-0-0---0-0-|-0---0-0-0---0-0-|-0---0-0-0---0-0---|
|---0-0-0---0-0-0-|---0-0-0---0-0-0-|---0-0-0---0-0-0-|---0-0-0---0-0-0---|
|-----2-1-----2-1-|-----2-1-----2-1-|-----2-1-----2-1-|-----2-1-----2-1---|
|-----2-2-----2-2-|-----2-2-----2-2-|-----2-2-----2-2-|-----2-2-----2-2---|
|-----------------|-----------------|-----------------|-------------------|
|-----------------|-------------------------------------------------------|
Related for Temple Of The Cat tab
Advertisement will be closed in 10 seconds