Song name
# A B C D E F G H I J K L M N O P Q R S T U V W X Y Z

Ayreon - The Theory Of Everything tab

-------------------------------------------------------------------------------
                           Ayreon - The Theory of Everything
-------------------------------------------------------------------------------
Tabbed by: snellejasper

Tuning: Standard (EADGBe)

e|----------------------------------------------|
B|----------------------------------------------|
G|----------------------------------------------|
D|-----5-4---5---7-4-5---9-7---9---10-12-9------| 
A|----------------------------------------------| 
E|-0-0-----0---0-------0-----0---0--------------| PM only this string

e|----------------------------------------------|
B|----------------------------------------------|
G|----------------------------------------------|
D|-----5-4---5---7-4-5---9-7---4-2h4p2----------|
A|------------------------------------5---------|
E|---0-----0---0-------0-----0------------------| PM only this string

Play this above 4x

That riff after this part is too hard for me too figure out. Try it yourself!


************************************

| /   slide up
| \   slide down
| h   hammer-on
| p   pull-off
| ~   vibrato
| +   harmonic
| x   Mute note
| b   Bend
| pb  Pre-bend
| br  Bend release
| pbr Pre-bend release
| brb Bend release bend

************************************
Tap to rate this tab
# A B C D E F G H I J K L M N O P Q R S T U V W X Y Z