Song name
# A B C D E F G H I J K L M N O P Q R S T U V W X Y Z

Ayreon - Phase Ii Symmetry - Xx Dark Medicine tab

                                          Artist - Ayreon
                                         *****************
                             Song - Phase II Symmetry - XX. Dark Medicine 
                            **********************************************
                                   Album - The Theory Of Everything
                                  **********************************
                                        Tabbed By - Ayreon77
                                       **********************

[Therapist]
        I know why you're....                   You're a fellow.... 
[Father]
        The choice is clear....                 I don't need to be....
 Am            Dm            C                     E
[-------0-----|-------1-----|------------0--------|--------0-----]
[---------1---|-----3---3---|--------------1------|----------0---]
[-----2-----2-|---2-------2-|---------0------0----|-----1------0-]
[---2---------|-0-----------|-------2-------------|---2----------]
[-0-----------|-------------|-0-2-3-------------3-|-2------------]
[-------------|-------------|---------------------|--------------]

               Our point of view is very much alike

               Denying him this chance just isn't right
 Am            Dm            F                 E
[-------0-----|-------1-----|-----------1-----|-------0-----]
[---------1---|-----3---3---|---------1---1---|-----0---0---]
[-----2-----2-|---2-------2-|-------2-------0-|---1-------1-]
[---2---------|-0-----------|-0-2-3-----------|-2-----------]
[-0-----------|-------------|-----------------|-------------]
[-------------|-------------|-----------------|-------------]


Guitar 2 (CAPO 7th FRET)
*************************
[Therapist]
      Give him one a day....                  That's the safest place.....

 Am            Dm            C                     E
[-------0-----|-------1-----|------------0--------|--------0-----]
[---------1---|-----3---3---|--------------1------|----------0---]
[-----2-----2-|---2-------2-|---------0------0----|-----1------0-]
[---2---------|-0-----------|-------2-------------|---2----------]
[-0-----------|-------------|-0-2-3-------------3-|-2------------]
[-------------|-------------|---------------------|--------------]

               At such a tiny dose The risks are low
                
 Am            Dm            F                 E
[-------0-----|-------1-----|-----------1-----|-------0-----]
[---------1---|-----3---3---|---------1---1---|-----0---0---]
[-----2-----2-|---2-------2-|-------2-------0-|---1-------1-]
[---2---------|-0-----------|-0-2-3-----------|-2-----------]
[-0-----------|-------------|-----------------|-------------]
[-------------|-------------|-----------------|-------------]

[Father]
      Keep it between you and me....          Oh They would never....
 Bm            Am            Em            F
[-------------|-------------|-------------|-------------]
[-------3-----|-------1-----|-------0-----|-------2-----]
[-----4---4---|-----2---2---|---------0---|-----3---3---]
[---4-------4-|---2-------2-|-----2-----2-|---4-------4-]
[-2-----------|-0-----------|---2---------|-4-----------]
[-------------|-------------|-0-----------|-------------]

               Let's both agree that no one needs to know
 Bm            Am            Em            F
[-------------|-------------|-------------|-------------]
[-------3-----|-------1-----|-------0-----|-------2-----]
[-----4---4---|-----2---2---|---------0---|-----3---3---]
[---4-------4-|---2-------2-|-----2-----2-|---4-------4-]
[-2-----------|-0-----------|---2---------|-4-----------]
[-------------|-------------|-0-----------|-------------]


[Therapist]
I know why you're here You're a fellow man of science Our point of view is very much alike
[Father]
The choice is clear I don't need to be convinced Denying him this chance just isn't right
[Therapist]
Give him one a day That's the safest place to start At such a tiny dose The risks are low
[Father]
Keep it between you and me They would never understand Let's both agree that no one needs to know



Here is the picking for this great tune, i tried the solo. but its beyond me, 
i don,t do many whammy bar solos. Anyone wanna try it and i,ll add it as your contribution. Thx.


ENJOY....
Tap to rate this tab
# A B C D E F G H I J K L M N O P Q R S T U V W X Y Z