Song name
# A B C D E F G H I J K L M N O P Q R S T U V W X Y Z

Ayreon - The Charm Of The Seer tab

                                          Artist - Ayreon
                                         *****************
                                    Song - The Charm Of The Seer 
                                   ******************************
                                    Album - The Final Experiment
                                   ******************************
                                        Tabbed By - Ayreon77
                                       **********************



INTRO - Bm D A G
******  Bm G F#m Em
        
        Bm

--------------------------------------------------------
VERSE 1
********
Bm          D           A         G
  I've been lost in the valley of nightmares
Bm          G            F#m       Em
  I've been found in the garden of dreams
Bm          D        A            G
  speak thy charm, I know you are out there
Bm         G         F#m         Em
  cast thy spell and silence the screams

--------------------------------------------------------
CHORUS
*******
F#m                      G
   but as I poise on the edge of life
F#m           G
   where time disappears
F#m         G
   I bow in fear
       A            Bm
to the charm of the seer

--------------------------------------------------------

Bm D A G
Bm G F#m Em

--------------------------------------------------------
VERSE 2
********
Bm          D       A       G
  I've seen fear in valiant faces
Bm          G       F#m       Em
  I've seen hope in desperate eyes
Bm        D       A        G
  lead me home to familiar places
Bm        G       F#m         Em
  lead me back to crystalline skies


--------------------------------------------------------
CHORUS
*******
F#m                      G
   but as I poise on the edge of life
F#m           G
   where time disappears
F#m         G
   I bow in fear
       A            Bm
to the charm of the seer


--------------------------------------------------------
01:24
SOLO 1
*******
 GUITAR 1
[-rake--------7-----------|-----------------|---------7---------------------]
[---9-7---7-9---9-7---9-7-|-----------------|-----7-9---9-7---9-7--s---h----]
[--x----9-----------9-----|-9-8-9--6--8---6-|-8-9-----------9-----8\9-8-9-6-]
[-x-----------------------|-------------9---|-------------------------------]
[-------------------------|-----------------|-------------------------------]
[-------------------------|-----------------|-------------------------------]


 GUITAR 1
[-------------------------7----------------|----------------------]
[-------7--9--7-----7--9-----9--7-----9--7-|----------------------]
[-8--9-----------9-----------------9-------|--9--8--9--6---8----6-]
[------------------------------------------|-----------------9----]
[------------------------------------------|----------------------]
[------------------------------------------|----------------------]
|                                                                 |
|GUITAR 2                                                         |
[------------------------------------------|----------------------]
[------------------------------------------|----------------------]
[---------13----------13-16-13-------13----|----------------------]
[13-14-16----16-14-16----------16-14----16-|-14-13-14----13-------]
[------------------------------------------|----------16----15-16-]
[------------------------------------------|----------------------]


 GUITAR 1
[---------7----------------------s---h----------]
[-----7-9---9-7---9-7----h------7\9-7-9--h-p----]
[-8-9-----------9-----9-8-9--6----------8-9-8-6-]
[-----------------------------------------------]
[-----------------------------------------------]
[-----------------------------------------------]
|
|GUITAR 2
[----------------------------------------------------------------]
[----------------------------------------------------------------]
[----------13-16-13-------13---------h------13------h-----h------]
[-13-14-16----------16-14----16-14-13-14-------16-14-16-13-14----]
[----------------------------------------16-------------------16-]
[----------------------------------------------------------------]


--------------------------------------------------------
He does a click strum with the right hand, I think he mutes his left hand?
VERSE 3
********
Bm       D         A         G
  I have failed, I have been forsaken
Bm          G           F#m     Em
  I've been scorned and misunderstood
Bm       D        A             G
  I have lost, my life has been taken
Bm    G            F#m    Em 
  I'd surrender if only I could


--------------------------------------------------------
CHORUS
*******
 play this with chorus below
 GUITAR 1
[-------------|---------------|----------------------]
[-------------|---------------|----------------------]
[-------------|---------------|----------------------]
[-------------|---------------|----------------------]
[---------6-7-|-7-6---6-----4-|-4-4-7---------6-4----]
[--4----7-----|-----7-----7---|-------4-----7------7-]
|                                                    |
|GUITAR 2                                            |
[------------------b--------------b------------------]
[-----------------12--12-------14------12------------]
[----------------------------------------------------]
[----------------------------------------------------]
[----------------------------------------------------]
[----------------------------------------------------]

F#m                      G
   And as I poise on the edge of life
F#m           G
   where time disappears
F#m         G
   I bow in fear
       A            Bm
to the charm of the seer


--------------------------------------------------------
02:13
SOLO 2
*******
   whammy
   /\/\/\  /\/\  /\/\/\  /\/\/\     /\/\/\
[-16------16-----17------14---------14-----16--12---/\/\/\-]
[-------------------------------17-----------------14------]
[----------------------------------------------------------]
[----------------------------------------------------------]
[----------------------------------------------------------]
[----------------------------------------------------------]


[-9---p-------------|-------------12---------------]
[---12-9------------|---s---12-14-------s----------]
[--------11-9-----9-|-11\13---------13\11-11-------]
[-------------11----|------------------------14-13-]
[-------------------|------------------------------]
[-------------------|------------------------------]

02:22
 Right Hand Muted Part
[----------------------|-------------|-------------|-------------]
[----------------------|-------------|-------------|-------------]
[----------------------|----------11-|-------11-13-|----11-13-14-]
[-14-13-11----11-13-14-|-11-13-14----|-13-14-------|-14----------]
[----------14----------|-------------|-------------|-------------]
[----------------------|-------------|-------------|-------------]


[-------------|-------------|-------------|-------------|-------------]
[-------------|----------14-|-------14-16-|----14-16-17-|-14-16-17-19-]
[-11-13-14-16-|-13-14-16----|-14-16-------|-16----------|-------------]
[-------------|-------------|-------------|-------------|-------------]
[-------------|-------------|-------------|-------------|-------------]
[-------------|-------------|-------------|-------------|-------------]


[----------16-17-16----16-17-19-21--21---23-21-20-|-16-17-16-14----------]
[-16-17-19----------19----------------------------|-------------16-17-14-]
[-------------------------------------------------|----------------------]
[-------------------------------------------------|----------------------]
[-------------------------------------------------|----------------------]
[-------------------------------------------------|----------------------]


--------------------------------------------------------
KEYBOARD MERRY-GO-ROUND
************************
--------------------------------------------------------

02:51
[-16-17-16-14----------]
[-------------16-17-14-]
[----------------------]
[----------------------]
[----------------------]
[----------------------]


--------------------------------------------------------
OUTRO
******
[----------------------------------------]
[----------------------------------------]play
[----------------------------------------]this 
[----------------------------------------]to 
[-4---7----------------4-----------------]the 
[---------7---5---4--------5---4---4-5-7-]end.....

I bow in fear
to the charm of the seer

I bow in fear
to the charm of the seer

I bow in fear
to the charm of the seer

I bow in fear
to the charm of the seer

I bow in fear
to the charm of the seer

I bow in fear
to the charm of the seer


Cool Tune
ENJOY..............
Tap to rate this tab
 
# A B C D E F G H I J K L M N O P Q R S T U V W X Y Z