Song name
# A B C D E F G H I J K L M N O P Q R S T U V W X Y Z

Ayreon - Into The Black Hole tab

This tab is Into the black hole by ayreon with bruce dickinson(Iron Maiden)enjoy jejeeje :D
Anybody question call me to my mail: daniel_al13@hotmail.com

Intro of Guitar x2

|-------------------------------------------|
|-------------------------------------------|
|-------------------------------------------|
|---2-----3-----4-----7-----8-----4-----3---|
|---2-----3-----4-----7-----8-----4-----3---|
|---0-----1-----2-----5-----6-----2-----1---|

|-------------------|
|-------------------|
|-------------------|
|---9-----10----11--|
|---9-----10----11--|
|---7-----8-----9---|

|--------------------------------------|
|--------------------------------------|
|--------------------------------------|
|---4-----3-----8------4-----3-----2---|
|---4-----3-----8------4-----3-----2---|
|---2-----1-----6------2-----1-----0---|

|-------------|
|-------------|
|-------------|
|---3-----4---|
|---3-----4---|
|---1-----2---|

Riff:2 x1

|--------------------------------------------|
|--------------------------------------------|
|--------------------------------------------|
|---2-----3-----4-----7-----8------4-----3---|
|---2-----3-----4-----7-----8------4-----3---|
|---0-----1-----2-----5-----6------2-----1---|

Riff:3 x1

|-------------------|
|-------------------|
|-------------------|
|---9-----10----11--|
|---9-----10----11--|
|---7-----8-----9---|

Riff:4 x1

|-------------------------|
|-------------------------|
|-------------------------|
|---4-----3-----8-----4---|
|---4-----3-----8-----4---|
|---2-----1-----6-----2---|

Riff:5 x3
|---------------------------------------------------------------------------------------|
|---------------------------------------------------------------------------------------|
|---------------------------------------------------------------------------------------|
|-----------------3----4------------------3-----2------------------2-----3--------------|
|----------4-----------------------4------------------------4-----------------------3---|
|----2----------------------2------------------------2----------------------------------|

|---------------------------------------------------------------------------------------|
|---------------------------------------------------------------------------------------|
|---------------------------------------------------------------------------------------|
|-----------------3----4------------------3-----2------------------2-----3----------5---|
|----------4-----------------------4------------------------4---------------------------|
|----2----------------------2------------------------2----------------------------------|

He is everything so far soon will add what lacks when can intone it in the guitar I hope 
it serves to them bye ..............  (:-D)
Tap to rate this tab
 
# A B C D E F G H I J K L M N O P Q R S T U V W X Y Z