Song name
# A B C D E F G H I J K L M N O P Q R S T U V W X Y Z

Ayumi Hamasaki - Missunderstood tab

Sounded out by Dean Horein.

This is the solo from (Miss)Understood by: Ayumi Hamasaki and Yoshio Nomura.

It is a taping solo (the entire solo). All strings are tuned normal (for the solo), the
with only one space in between them are triplets (so basically the less the spaces, the
the notes go). Sorry if it is not fully correct, I had to sound it out by ear. So I 
my best. This is a redo because my earlier tab I did was wrong. If you need a guide just
to the song and solo and follow along.


e---------------------------------------------------------------------------|
b---------------------------------------------------------------------------|
g---------------------------------------------------------------------------|
d-6---6---8---6---8---6---8---6---8---6---8---6---10---6---10---6---10---6--|
a---------------------------------------------------------------------------|
E---------------------------------------------------------------------------|


e----------------------------------------------------------------------------|
b----------------------------------------------------------------------------|
g----------------------------------------------------------------------------|
d-10---6---10---6---13---6---13---6---13---6---13---6---13---6---13---6---15-|
a----------------------------------------------------------------------------|
E----------------------------------------------------------------------------|


e------------------------------------------------------------------|continue on
b------------------------------------------------------------------|continue on
g------------------------------------------------------------------|continue on
d---6---15---6-13--6-11--6-10--6-8--6-7-8-6-7-8-6-7-8-6-7-8-6-7----|continue on
a------------------------------------------------------------------|continue on
E------------------------------------------------------------------|continue on


e---------------------------------------------------------------------------|
b---------------------------------------------------------------------6-7-9-|
g---------------------6-7-8-6-7-8-6-7-8-6-7-8-6-7-8-6-7-8-6-7-8-6-7-8-------|
d-8-6-7-8-6-7-8-6-7-8-------------------------------------------------------|
a---------------------------------------------------------------------------|
E---------------------------------------------------------------------------|


e----------------------------------------------------------------------------|
b-6-7-9-6-7-9-6-7-9-6-7-9-6-7-9-6-7-9-6-7-9-6-7-11-6-7-9-6-7-11-6-7-9-6-7-11-|
g----------------------------------------------------------------------------|
d----------------------------------------------------------------------------|
a----------------------------------------------------------------------------|
E----------------------------------------------------------------------------|


e------------11-------------------------------------------------------------|End
b-6-7-9-9-9-----------------------------------------------------------------|
g---------------------------------------------------------------------------|
d---------------------------------------------------------------------------|
a---------------------------------------------------------------------------|
E---------------------------------------------------------------------------|
Tap to rate this tab
# A B C D E F G H I J K L M N O P Q R S T U V W X Y Z