Song name
# A B C D E F G H I J K L M N O P Q R S T U V W X Y Z

Ayumi Hamasaki - Daybreak tab

-------------------------------------------------------------------------------
			     Daybreak - Bell x1
-------------------------------------------------------------------------------
Tabbed by: Fergal Doyle
Email: ckyidr9@hotmail.com

 		          I....went                        round                     to stand in
  Intro x8
E|----------0----------------|----------0-----------------------------0-----------------|
B|------------3---3------3---|------3------3----3-----3----------3-------3----3-----3---|
G|------2-------2---2--------|----2---2------2----2------------2---2-------2---2--------|
D|----2---2-----------2------|--0-------------------0--------0-------------------0------|
A|--0------------------------|----------------------------------------------------------|
E|---------------------------|----------------------------------------------------------|


  your hall                                    to watch you    decend
                                                                           
E|-----------0--------------------------0--------------------|-----------0---------------|
B|-------------3----3-----3---------------3----3------3------|-------3-----3---3-----3---|
G|------0--------0----0-------------0-------0----0-----------|-----2---2-----2---2-------|  etc etc...
D|----2---2-------------2---------2---2------------2---------|---0-----------------0-----|
A|--3---------------------------3----------------------------|---------------------------|
E|-----------------------------------------------------------|---------------------------|


   Am				     G
		
   what  a   way               to   wake

	 ("Half play the whole" cord in this section)
E|--------------------------------------------------------------------|
B|------------1-------------------------------------------------------|
G|-------2------2-----2-----2-------------------0---------------------|Repeat
D|----2-----2------2-----2-----------------0------0----0----0---------| 
A|-0---------------------------0--------2-----2------2---2------------|
E|-----------------------------------3-------------------------3------|





E|-------------------------------------------------------------------------------------------------------------|
B|-------6-------------3--------------6------------------------------------------------------------------------|
G|-------------------------------------------------------------------------------------------------------------|Repeat
D|---------8-------------5----------------------------5-----------------3----------------5---------------8--8-8|
A|-----8------------5--------------8----8---------5------5-----------3------3---------5-----5---------8-----8-8|
E|--6------------3--------------6--------------3-----------------1-----------------3---------------6--------6-6|
Tap to rate this tab
# A B C D E F G H I J K L M N O P Q R S T U V W X Y Z