Guitaretab - guitar tabs
Song name
# A B C D E F G H I J K L M N O P Q R S T U V W X Y Z

Ayumi Hamasaki - Depend On You tab

Depend on You (Thousand Arms Theme)
	Ayumi Hamasaki
Tabbed by SJ (kirei_008@hotmail.com)

 Listen to the song to get the strum pattern down. 
 Pretty much all the power chords are palm muted.

Intro
----------------------------------
----------------------------------
----------------------------------
-7-9-6----7-9----7-9-6----7-9-11--
-5-7-4-4--5-7-7--5-7-4-4--5-7--9--
-------2------5--------2----------

---------------------------------------------------------
---------------------------------------------------------
----9----14-13--------------------9----14-13-------11-9--
-11---11-------14----14-11-9-11-----11--------14---------
------------------14-----------------------------14------
---------------------------------------------------------

-------------------------------------------------------
------------------------------------------------12-10--
---9---14-13-------------------9----14-13-11-----------
-11-11-------14----14-11-9-11----11----------14--------
----------------14-------------------------------------
-------------------------------------------------------
						
Verse
----------------------
----------------------
----------------------
----6--7--------6-----
-4--4--5--7--4--4--7--
-2--------5--2-----5--

Prechorus
---------------------------
---------------------------
---------------------------
-7--9------------5--7---9--
-5--7--2--4----7-4--5---7--
-------0--2----5-----------
[ Tab from: http://www.guitaretab.com/a/ayumi-hamasaki/34708.html ]
Chorus
----------------------------------
----------------------------------
----------------------------------
-7-9-6----7-9----7-9-6----7-9-11--
-5-7-4-4--5-7-7--5-7-4-4--5-7--9--
-------2------5--------2----------

After the first chorus;
---------------------------------------------------------
---------------------------------------------------12-10-
---9---14-13--------------------9-----14-13-11-----------
-11-11-------14----14-11-9-11-----11------------14-------
----------------14---------------------------------------
---------------------------------------------------------

Solo
-14-12----14-14-------12----------------------------------------
-------14---------s14----14-12-10-12-12-------------------------
------------------s14--------------------11-9-------------9-----
----------------------------------------------11-9--9-9-7---11--
----------------------------------------------------------------
----------------------------------------------------------------

--------------------------14b---------------------18b-17---
---------10---------10-12-----12-10---------10-12----------
----9-11----11-9-11-----------------11-9-11----------------
-11--------------------------------------------------------
-----------------------------------------------------------
-----------------------------------------------------------

-14s22b-21-19-17--------------------
-----------------19p17--------------
-----------------------18-16-14-14--
------------------------------------
------------------------------------
------------------------------------
Related for Depend On You tab
Advertisement will be closed in 10 seconds