Song name
# A B C D E F G H I J K L M N O P Q R S T U V W X Y Z

Ayushmann Khurrana - Pani Da Rang Male chords

Highlighted       Show chord diagrams
Tabbed by: VelvetAssassin

Tuning: Standard (EADGBe)

---------x---------x---------x---------x---------x---------x---------x

Chords Used:

Em  022000
C   x32010
D   xx0232
Em7 022030

---------x---------x---------x---------x---------x---------x---------x

INTRO:

    Em7
e|------0--------------0--------|------------------------------|
B|--------3---3----------3---3--|------3--------------3--------|
G|----0-----0--------0-----0----|----0---0---0------0---0---0--|
D|--2--------------2------------|--0-------2------0-------2----| (x2)
A|------------------------------|----------*--------------*----|
E|------------------------------|------------------------------|

    C    D
e|--0----2--|
B|--1----3--|
G|--0----2--|
D|--2----0--| (Just strum the C and the D chords after the above.)
A|--3-------|
E|----------|

*At the places where I've marked * you may choose to play 0 (or open) D string instead
of picking it at the 2nd fret, whichever sounds better to you. :)

---------x---------x---------x---------x---------x---------x---------x

Now for the initial chord-play, the strumming technique is very essential.

The basic strumming goes: Up Down U D U D U D...

The first strumming starts with the Em chord. Here's a ROUGH idea of which strings to
strum, please improvize!

    Em
e|------0-0-------0-0------------|
B|------0-0-------0-0------------|
G|----0-0-0-----0-0-0---0-0-0-0--|
D|----2-2-2-----2-2-2---2-2-2-2--| (x4)
A|----2-2-2-----2-2-2---2-2-2-2--|
E|--0-0-0-0---0-0-0-0---0-0-0-0--|
    v ^ v ^   v ^ v ^   v ^ v ^

v = Down stroke
^ = Up stroke

NOTE - You must follow the SAME strumming pattern that I've demonstrated here using the
Em chord, throughout the song. The basic idea is, strumming the bass note first, bass
strings next and finally all the strings separately each time as I've shown. Listen 
closely to the song to understand.

---------x---------x---------x---------x---------x---------x---------x

Em            D
 Pani da rang vekh ke

      Em      D
 Pani da rang vekh ke

      Em      D
 Pani da rang vekh ke

C            D        Em
 Ankhiyan jo anju rul de

--

C           D         Em
 Ankhiyan jo anju rul de

C           D         Em

Em

--

Em                    D
 Mahiya naa aaya mera, mahiya naa aaya

Em                    D
 Mahiya naa aaya mera, mahiya naa aaya

C                     D
 Ranjhna na aaya mera, mahiya naa aaya

C                     D
 Mahiya naa aaya mera, ranjhna na aaya

         Em        D
 Ankhaan daa, noor vekh ke

         Em        D
 Ankhaan daa, noor vekh ke

C            D        Em
 Ankhiyan jo anju rul de

--

C           D         Em
 Ankhiyan jo anju rul de

C           D         Em
 Ankhiyan jo anju rul de

--

No chord (play bass E string 0 then, slide down to 12, if you want to.)
Kamli ho gayi tere bina

D
 Aaja ranjhan mere

Em                       D
 Kamli ho gayi tere bina, Aaja ranjhan mere

C                                 D
 Baarish barkha sab kuch beh gayi, aaya ni jind mere

C                                 D
 Baarish barkha sab kuch beh gayi, aaya ni jind mere

         Em        D
 Ankhaan daa, noor vekh ke

         Em        D
 Ankhaan daa, noor vekh ke

C            D        Em
 Ankhiyan jo anju rul de

--

C           D         Em
 Ankhiyan jo anju rul de

C           D         Em
 Ankhiyan jo anju rul de

--

(Just strum once henceforth)

Em               D
 Kothe utte behke ankhiyan milounde

C         D             Em
 Na jaana main tu kabhi chhod

Em                D
 Tere utte mar da, pyaar tenu kar da

C         D          Em
 Milega tujhe na koi aur

(Intro riff here, otherwise you can strum the same chords as mentioned previously.)

        Em        D
 Tu bhi aa sabko chhod ke

        Em        D
 Tu bhi aa sabko chhod ke meri

C           D        Em
Ankhiyan jo anju rul de

--

C           D         Em
 Ankhiyan jo anju rul de

Em

--

Em            D
 Pani da rang vekh ke

      Em      D
 Pani da rang vekh ke

      Em      D
 Pani da rang vekh ke

C            D        Em
 Ankhiyan jo anju rul de

C           D         Em
 Ankhiyan jo anju rul de (Repeats)

---------x---------x---------x---------x---------x---------x---------x

An Advice: Don't sing-along some of the parts! :P It's pretty tough keeping up that
strumming part and singing along during the parts after the Chorus each time.
Tap to rate this tab
# A B C D E F G H I J K L M N O P Q R S T U V W X Y Z