Song name
# A B C D E F G H I J K L M N O P Q R S T U V W X Y Z

Ayushmann Khurrana - Saadi Galli Aaja chords

Highlighted       Show chord diagrams
Strumming Pattern - D-udu-D-udud

Aaja teriyaan duaawan lagiyaan
Rab ton main ajj vi ladiyaan

[For the next two lines, please hold the given chords and pluck strings 4-3-1-2]

(Em)Aaja teriyaan duaawan lagi(D)yaan
(C)Rab ton main (D)ajj vi ladi(Em)yaan 

e|--------------------------------------------------------------------------|
B|--------------------------------------------------------------------------|
G|--------9----7------------------------------------------------------------|
D|------------------7----9----5----7-------5--------------------------------|
A|---7----------------------------------5-----7--5--------------------------|
E|--------------------------------------------------------------------------|
                                                                                              
e|--------------------------------------------------------------------------|
B|--------------------------------------------------------------------------|
G|--------9----7------------------------------------------------------------|
D|------------------7----9----5----7-------5--------------------------------|
A|---7----------------------------------5-----7--5--------------------------|
E|--------------------------------------------------------------------------|
                                                                                              
(Em)Sadi gali aaja saanu (D)chahan waliye
(Em)Sadi gali aaja saanu (D)chahan waliye
(Em)Sadi gali aaja saanu (D)chahan waliye
 Tennu (G)ho..(D)kah marda phiran 

(Em)-(D)-(G)-(A) x 2

(Em)Sadi gali aaja saanu (D)chahan waliye
(Em)Sadi gali aaja saanu (D)chahan waliye
(Em)Sadi gali aaja saanu (D)chahan waliye
 Tennu (G)ho..(D)kah marda phiran

(Em)-(D)-(G)-(A) x 2

(G)Ik waari (D)aaja door (C)jaan wali(Em)ye
(G)Ik waari (D)aaja door (C)jaan wali(Em)ye
 Tenu (C)hokah (D)marda phi(Em)ran
 Tenu (C)hokah (D)marda phi(Em)ran
 Ho tenu (G)ho..(D)kah marda phi(Em)ran

(Em)-(D)-(G)-(A) x 4

(Em)Lagdi tu kyun (D)door da (Em)khwaab
(Em)Lagdi tu kyun (D)door da (Em)khwaab
(A)Akhiyan cho (D)wag pa(Em)yaan
 Ab (C)dil main lagana tere (G)naal
(C)Dil main lagana tere (D)naal

(G)Rooh nu (D)vasaja seene (C)loun wali(Em)ye
(G)Ik waari (D)aaja door (C)jaan wali(Em)ye
 Tenu (C)hokah (D)marda phi(Em)ran
 Tenu (C)hokah (D)marda phi(Em)ran
 Ho tenu (G)ho..(D)kah marda phi(Em)ran

(E) - (A) [Following the same strumming pattern, strum (E) through 8 beats and 
then (A) through 8 beats]
 
(E)Chitthiyaan ton (B)mitthi teri (A)yaad (E)aayi
(E)Aaya ni (A)sajna me(B)ra
(E)Kattiyaan jo (B)raatan kalle (A)bhul na (E)paayi
(E)Dil vich (A)vasna te(B)ra...

(G)Rab tennu (D)maneya khair (C)chahn wali(Em)ye
(G)Ik waari (D)aaja door (C)jaan wali(Em)ye
 Tenu (C)hokah (D)marda phi(Em)ran
 Tenu (C)hokah (D)marda phi(Em)ran
 Ho tenu (G)ho..(D)kah marda phi(Em)ran

e|--------------------------------------------------------------------------|
B|--------------------------------------------------------------------------|
G|--------9----7------------------------------------------------------------|
D|------------------7----9----5----7-------5--------------------------------|
A|---7----------------------------------5-----7--5--------------------------|
E|--------------------------------------------------------------------------|

[Courtesy: Mr. Maitrik Jani - http://www.youtube.com/user/maitrikjani]
Tap to rate this tab
# A B C D E F G H I J K L M N O P Q R S T U V W X Y Z