Guitaretab - guitar tabs
Song name
# A B C D E F G H I J K L M N O P Q R S T U V W X Y Z

Azra - Voljela Me Nije Nijedna tab

Intro:
          D  C
e-------------------------------------------------------------------|
H--20-----20-17--------17-------------------------------------20-17-|
G-------------------19--------19--16-19-16--19---16-----16-19-------|
D----------------------------------------------------19-------------|
A-------------------------------------------------------------------|
E-------------------------------------------------------------------|

a onda dva puta:
   Em                 G               D              Em
e-------------------------------------------------------|
H--12-10-12-10-8-7----8-7-8-7-5-------7-5-7-5---------5-|
G-------------------------------7--------------7-6-7----|
D-------------------------------------------------------|
A-------------------------------------------------------|
E-------------------------------------------------------|
[ Tab from: http://www.guitaretab.com/a/azra/107679.html ]
Em                    G
Kako sam rodjen gdje to
D                  A
zasto smo dosli da ovdje zivimo
Em                   G
mogu li nauciti bilo sto
D                        A
na znajuci nista hocu li biti ponovo.


Em         G
To sto sam bio to sad
     D           Em
crna zemlja pokriva
Em         G
to sto bih bio nebo zna
     D              Em      G  D  A
voljela me nije nijedna.

Ruina, nistavilo (to sam ja)
sto je to covjek sretna mogucnost izbora
ali tko je ona ili tko sam ja
uglavnom to mi sada zivot racun dostavlja.

Kako sam rodjen gdje to
hocu li biti ponovo
to sto sam bio nebo zna
voljela me nije nijedna.

Zaljubio se , obljubio je (to je to)
Imao srece dobio sto god trazio (voljela me)
ali tko je ona ili tko sam ja
ili kako sve to skupa mili brate izgleda.

To sto sam bio to sad
crna zemlja pokriva
to sto bih bio nebo zna
pa nek odgonetava
voljela me nije nijedna.
Related for Voljela Me Nije Nijedna tab