Song name
# A B C D E F G H I J K L M N O P Q R S T U V W X Y Z

Aztec Camera - Somewhere In My Heart tab

Great Aztec Camera track and solo. Any comments, good or bad, are always welcome.

TAB Legend:

p	- Pull-off
b	- Bend note 
r	- Return from bend
~	- Vibrato


e|-------20p17-20p17----17----|-------------------------------------|
B|-20b22-------------20----20-|-20p17-20p17----17-------------------|
G|----------------------------|-------------19----19b21-19b21-19b21-|
D|----------------------------|-------------------------------------|
A|----------------------------|-------------------------------------|
E|----------------------------|-------------------------------------|


e|-------------------------------------------------22b24-22-|
B|----------------------------------------------------------|
G|-19b21-19b21-19b21-19b21r19p17----------17-19p17----------|
D|-------------------------------19-17-19-------------------|
A|----------------------------------------------------------|
E|----------------------------------------------------------|


e|-------22b24-22-20-------------------19b20-|
B|-20-22-------------22b24-22-20-22b24-------|
G|-------------------------------------------|
D|-------------------------------------------|
A|-------------------------------------------|
E|-------------------------------------------|


e|-22b24-22b24-22b24-22-20-19-17~~~-|
B|----------------------------------|
G|----------------------------------|
D|----------------------------------|
A|----------------------------------|
E|----------------------------------|
Tap to rate this tab
# A B C D E F G H I J K L M N O P Q R S T U V W X Y Z