Song name
# A B C D E F G H I J K L M N O P Q R S T U V W X Y Z

Aztec Two Step - Baking tab

BAKING - Aztec Two Step
------------------- 
Tabbed By: Matt H
E-mail:

Tuning: Standard, capo on 6

e|-----------------------------------------------------------|
B|-----------------------------------------------------------|
G|-----------------------------------------------------------|
D|----------2------------------------------------------------|
A|---00--2h4---------44----22--------------------------------|
E|-------------44--------------22---00-----------------------|

e|-----------------------------------------------------------|
B|-----------------------------------------------------------|
G|-----------------------------------------------------------|
D|----------------2--4p2------0-0-1-----2~-------------------|
A|--------00--2h4 ---------44--------------------------------|
E|--0h2h4----------------------------------------------------|
 
If you've stumbled upon this tab then you're awesome because 
I don't know anybody else who likes this extremely talented band!!!
Let me know if I messed anything up
Tap to rate this tab
# A B C D E F G H I J K L M N O P Q R S T U V W X Y Z