Song name
# A B C D E F G H I J K L M N O P Q R S T U V W X Y Z

Azu - For You tab

-------------------------------------------------------------------------------
                               AZU - For You
                http://www.sonymusic.co.jp/Music/Info/azu/
-------------------------------------------------------------------------------
Tabbed By : Kshitiz Rana Magar

Tuning : Standard

Note: CAPO on 3rd Fret to match with original song's tune.

If you are satisfied with this tab, give it some stars.

One of the loveliest songs to learn. Enjoy~!^ ^
-------------------------------------------------------------------------------
~~~~~~
Intro:
~~~~~~
e |--------------------------------------------------------------------------------|
b |----------------------------0-------------------1-------------------1-----3--1--|
g |--------0-----------------2---2---------------2---2---------------2---2---------|
d |------3---3-------------0-------0---0-------2-------2---2-------2-------2-------|
a |----3-------3---3-------------------------0-----------0-------0-----------------|
e |--1-----------1-------3-----------3---------------------------------------------|


e |--------------------------------------------------------------------1-0---------|
b |----------------------------0-------------------1-----------------------1-------|
g |--------0-----------------2---2---------------2---2---------------2-------2-----|
d |------3---3-------------0-------0---0-------2-------2---2-------2-----------2---|
a |----3-------3---3-------------------------0-----------0-------0-----------------|
e |--1-----------1-------3-----------3---------------------------------------------|


~~~~~
Outro:
~~~~~
e |----------------------------------------------------3--7-8--7-------------------|
b |----------------------------0-------------------1-5-----------8-5---------------|
g |--------0-----------------2---2---------------2-------------------7-5-4---------|
d |------3---3-------------0-------0---0-------2---------------------------5-0~----|
a |----3-------3---3-------------------------0-------------------------------------|
e |--1-----------1-------3-----------3---------------------------------------------|

-------------------------------------------------------------------------------
~End~
Tap to rate this tab
# A B C D E F G H I J K L M N O P Q R S T U V W X Y Z