Azul Antena - Cielo tab

CIELO: (Capotrasto en 5to traste)
INTRO VERSO:
e----------------------|
B--------3-------------|
G--0--------0----------|      x3
D---------------0------|
A----------------------|
E--3--3----------------|

e--------------------------------------------------------------|
B--------3/1---------------0-------------0------------0--------|
G--0---------------------------0------------0------------0-----|
D-------------------2--------------2------------2------------2-|
A---------------2---3---3---------3--3---------3---3-------3---|
E--3--3---------3----------------------------------------------|

e-----------------|
B-----------------|
G--0----2/0--0----|
D-----------------|
A-----------------|
E-----------------|

e---------------------------------|
B---------------------------------|
G---------------------------------|
D----2---2-------2--2-----2--2----|
A----3---3-------3--3-----3--3----|
E---------------------------------|

CORO:

e-----------|
B----3------|
G-----------|
D-----------|
A----2------|
E----3------|

e---------|
B---------|
G---------|
D----2----|
A----3----|
E---------|
Tap to rate this tab
 
# A B C D E F G H I J K L M N O P Q R S T U V W X Y Z