Azul Antena - Aunque Tu No Estes tab

Esto es super simple y lo explique muy bien...

|--------------------------------------------------------------------|
|--------------------------------------------------------------------|
|--------------------------------------------------------------------|
|--6--6--6--6--6----6--6--6--6--6----6--6--6--6--6----6--6--6--6--6--|
|44-44-44-44-44-4-77-77-77-77-77-7-----------------------------------|
|----------------------------------55-55-55-55-55-5-44-44-44-44-44-4-|

                      En esta parte inica el piano

|-------------------------------------------------------------------|
|-------------------------------------------------------------------|
|-------------------------------------------------------------------|
|--6--6--6--6--6----6--6--6--6--6----6--6--6--6--6------------------|
|44-44-44-44-44-4-77-77-77-77-77-7----------------------------------|
|----------------------------------55-55-55-55-55-5-444444/21-------|


Ese es el intro.. en el primer y segundo verso se repite lo mismo de arriba
pero se aumenta un dedo dependiendo de la parte en la que estes, pero eso no
es dificil... y para el precoro son las siguientes notas...

           C#m
  1   2   3   4
|---|---|---|-1-|---|---|
|---|---|---|-1-|-2-|---|
|---|---|---|-1-|---|-4-|
|---|---|---|-1-|---|-3-|
|---|---|---|-1-|---|---|
|---|---|---|-1-|---|---|

                   E
  1   2   3   4   5   6   7
|---|---|---|---|---|---|-1-|---|---|
|---|---|---|---|---|---|-1-|---|-4-|
|---|---|---|---|---|---|-1-|---|-3-|
|---|---|---|---|---|---|-1-|---|-2-|
|---|---|---|---|---|---|-1-|---|---|
|---|---|---|---|---|---|-1-|---|---|

             A
  1   2   3   4   5
|---|---|---|---|-1-|---|---|
|---|---|---|---|-1-|-2-|---|
|---|---|---|---|-1-|---|-4-|
|---|---|---|---|-1-|---|-3-|
|---|---|---|---|-1-|---|---|
|---|---|---|---|-1-|---|---|

Abm
|---|---|---|-1-|---|---|
|---|---|---|-1-|---|---|
|---|---|---|-1-|---|---|
|---|---|---|-1-|---|-4-|
|---|---|---|-1-|---|-3-|
|---|---|---|-1-|---|---|

Son las originales las saque del video de azul antena
------------> Cortesia de The END
Facebook: http://www.facebook.com/pages/The-END/188362497848488
Tap to rate this tab
 
# A B C D E F G H I J K L M N O P Q R S T U V W X Y Z