Azul Antena - Aunque Tu No Estes tab

Espero que le entiendan a mis tabs y esta
perfecta la copie del video pero me salio bien

|-------------------------------------------------------------------|
|-------------------------------------------------------------------|
|-------------------------------------------------------------------|
|------6-----6-----6-----6-----6-------6-----6-----6-----6-----6----|
|--4-4---4-4---4-4---4-4---4-4---4-7-7---7-7---7-7---7-7---7-7---7--|
|-------------------------------------------------------------------|

|-------------------------------------------------------------------|
|-------------------------------------------------------------------|
|-------------------------------------------------------------------|
|------6-----6-----6-----6-----6-------6-----6-----6-----6-----6----|
|-------------------------------------------------------------------|
|--5-5---5-5---5-5---5-5---5-5---5-4-4---4-4---4-4---4-4---4-4---4--|

Aqui entra es teclado
|-------------------------------------------------------------------|
|-------------------------------------------------------------------|
|-------------------------------------------------------------------|
|------6-----6-----6-----6-----6-------6-----6-----6-----6-----6----|
|--4-4---4-4---4-4---4-4---4-4---4-7-7---7-7---7-7---7-7---7-7---7--|
|-------------------------------------------------------------------|

|-------------------------------------------------------------------|
|-------------------------------------------------------------------|
|-------------------------------------------------------------------|
|------6-----6-----6-----6-----6---6-6-6-6-6-6h18-18-18-18-18-18----|
|-------------------------------------------------------------------|
|--5-5---5-5---5-5---5-5---5-5---5-4-4-4-4-4-4h15-15-15-15-15-15----|

Esto se repite dos veces
|----------------------------------------------------|
|----------------------------------------------------|
|----------------------------------------------------|
|--6-6-6-6-6-6-6-6-6-6-6-6-6-6-6-6-6-6-6-6-6-6-6-6---|
|--4-4-4-4-4-4-7-7-7-7-7-7---------------------------|
|--------------------------5-5-5-5-5-5-4-4-4-4-4-4---|

Notas
Cm traste 4

Bb traste 7

F  traste 5

F  traste 4

Solo

|---------------------------------------------------|
|--9h12--11-9-----9---------------------------------|
|--------------11---11-9--------9-11--13-11-9--13~--|
|------------------------11--11---------------------|
|---------------------------------------------------|
|---------------------------------------------------|

Una vez
|----------------------------------------------------|
|----------------------------------------------------|
|----------------------------------------------------|
|--6-6-6-6-6-6-6-6-6-6-6-6-6-6-6-6-6-6-6-6-6-6-6-6---|
|--4-4-4-4-4-4-7-7-7-7-7-7---------------------------|
|--------------------------5-5-5-5-5-5-4-4-4-4-4-4---|

Se repite 3 veses los trastes

Notas
Cm traste 4

Bb traste 7

F  traste 5

F  traste 4

Solo
|------------------------------------------------------|
|--7-7-7-7-7-7-7-7h9--9-9-9-9-9-9-9--12-10-9--12-10-9--|
|------------------------------------------------------|
|------------------------------------------------------|
|------------------------------------------------------|
|------------------------------------------------------|

|--------------------------------------------------------------|
|--12-10-9----9------------------------------------------------|
|----------11---11-9----9-11-11/--9--------9-11/--11-9-11-9----|
|--------------------11------------11--11------------------11--|
|--------------------------------------------------------------|
|--------------------------------------------------------------|

|-------------------------------------------------|
|------------9-9-9-11-11-12-12-12-11-11-11-9-9----|
|-11--11-11---------------------------------------|
|-------------------------------------------------|
|-------------------------------------------------|
|-------------------------------------------------|


|--------------------------------------------------|
|--17-17-17-14-14-14-12-12-------------------------|
|--------------------------14-14-14-12-12-12-------|
|--------------------------------------------14-14-|
|--------------------------------------------------|
|--------------------------------------------------|

|----------------------------------------------|
|--12h19--19-19-19-19-19h21--21-21-21-21-21h1--|
|----------------------------------------------|
|----------------------------------------------|
|----------------------------------------------|
|----------------------------------------------|

fin
espero que les aya gustado me costo mucho trabajos sacarla como todo y algunas preguntas 
bayan a my face que es http://www.facebook.com/profile.php?id=100000762482142 o mi 
correo que es rocker-sasukeclan@hotmail.com gracias
Tap to rate this tab
 
# A B C D E F G H I J K L M N O P Q R S T U V W X Y Z