Song name
# A B C D E F G H I J K L M N O P Q R S T U V W X Y Z

Azure Ray - Displaced chords

Highlighted       Show chord diagrams
---------------------------------------------------------------------------
                Displaced  Azure Ray
---------------------------------------------------------------------------
Tabbed by: maguri
Tuning: Drop-D

Azure Ray
Displaced (2001)
(Azure Ray)

From: "Azure Ray"

---------------------------------------------------------------------------
CHORDS

      e-B-G-D-A-D
G     x-x-x-5-5-5
G6    x-x-x-5-7-5
Em    x-x-x-2-2-2
D     x-x-x-0-0-0
B     x-x-x-x-9-9
C     x-x-10-10-10


---------------------------------------------------------------------------

INTRO
  G           G6           G           G6  G   D
  1 + 2 + 3 + 4 + 5 + 6 +  1 + 2 + 3 + 4 + 5 + 6 +
e|------------------------|------------------------|
B|------------------------|------------------------|
G|------------------------|------------------------|
D|5-----5-5-5-5-----5-5-5-|5-----5-5-5-5---5---0---|
A|5-----5-5-5-7-----7-7-7-|5-----5-5-5h7---5---0---|
E|5-----5-5-5-5-----5-5-5-|5-----5-5-5-5---5---0---|
                                       ˄   ˄   ˄
  Em                       D
  1 + 2 + 3 + 4 + 5 + 6 +  1 + 2 + 3 + 4 + 5 + 6 +
e|------------------------|------------------------|
B|------------------------|------------------------|
G|------------------------|------------------------|
D|2-----2-2-2-2-----2-2-2-|0-----------------------|
A|2-----2-2-2-2-----2-2-2-|0-----------------------|
E|2-----2-2-2-2-----2-2-2-|0-----------------------|


VERSE
  G           G6           G           G6  G   D
  1 + 2 + 3 + 4 + 5 + 6 +  1 + 2 + 3 + 4 + 5 + 6 +
e|------------------------|------------------------|
B|------------------------|------------------------|
G|------------------------|------------------------|
D|5-----5-5-5-5-----5-5-5-|5-----5-5-5-5---5---0---|
A|5-----5-5-5-7-----7-7-5-|5-----5-5-5-7---5---0---|
E|5-----5-5-5-5-----5-5-5-|5-----5-5-5-5---5---0---|
                                       ˄   ˄   ˄
  Em                       D
  1 + 2 + 3 + 4 + 5 + 6 +  1 + 2 + 3 + 4 + 5 + 6 +
e|------------------------|------------------------|
B|------------------------|------------------------|
G|------------------------|------------------------|
D|2-----2-2-2-2-----2-2-2-|0-----0-0-0-------0-0-0-|
A|2-----2-2-2-2-----2-2-2-|0-----0-0-0-------0-0-0-|
E|2-----2-2-2-2-----2-2-2-|0-----0-0-0-------0-0-0-|


LINK
  G           G6           G                   B
  1 + 2 + 3 + 4 + 5 + 6 +  1 + 2 + 3 + 4 + 5 + 6 +
e|------------------------|------------------------|
B|------------------------|------------------------|
G|------------------------|------------------------|
D|5-----5-5-5-5-----5-5-5-|5-----5-5-5-5---5-------|
A|5-----5-5-5-7-----7-7-7-|5-----5-5-5-5---5---9---|
E|5-----5-5-5-5-----5-5-5-|5-----5-5-5-5---5---9---|
                                       ˄   ˄   ˄

OUTRO
  G           G6           G           G6        G
  1 + 2 + 3 + 4 + 5 + 6 +  1 + 2 + 3 + 4 + 5 + 6 +
e|------------------------|------------------------|
B|------------------------|------------------------|
G|------------------------|------------------------|
D|5-----5-5-5-5-----5-5-5-|5-----5-5-5-5-5---5-5-5-| (three times)
A|5-----5-5-5-7-----7-7-5-|5-----5-5-5-7-7---7-7-5-|
E|5-----5-5-5-5-----5-5-5-|5-----5-5-5-5-5---5-5-5-|

  G           G6/9         G 
  1 + 2 + 3 + 4 + 5 + 6 +  
e|------------------------|------------------------|
B|------------------------|------------------------|
G|------------------------|------------------------|
D|5-----5-5-5(7)---(7-7)5-|5-----------------------|
A|5-----5-5-5-7-----7-7-5-|5-----------------------|
E|5-----5-5-5-5-----5-5-5-|5-----------------------|

---------------------------------------------------------------------------

INTRO
| G G6 | G   G6 G D | Em | D |

            G  G6  G
It's just a simple line
G6 G   D          Em            D
I  can still hear it all of the time
              G    G6   G
If I can just hold on tonight
G6 G    D    Em                  D
I  know that nothing, nothing survives
           | G | % |
Nothing survives

            G  G6  G
I think Im turned around
G6  G  D    Em              D
Im looking up, not looking down
             G   G6   G
And when Im standing still
G6 G      D   Em                D
Wa-tching you run, watching you fall
          [G]
Fall into me

LINK 
| G G6 | G   B |
       

C       G                     Em                C
   Am I making something worthwhile out of this place
C    G                     Em                C
Am I making something worthwhile out of this chase
        G 
I am displaced
G          | G | D |
   I am displaced

             G         G6  G
And she's my friend of all friends
G6  G  D     Em                   D
She is still here when everyone's gone
            G       G6    G
She doesn't have to say a thing
G6    G    D    Em                 D
We'll just keep laughing all night long
          [G]
All night long

LINK 
| G G6 | G   B |

C       G                     Em                C
   Am I making something worthwhile out of this place
C    G                     Em                C
Am I making something worthwhile out of this chase
        G 
I am displaced
G          | G | D |
   I am displaced

            G  G6  G
It's just a simple line
G6 G   D          Em            D
I  can still hear it all of the time
              G    G6   G
If I can just hold on tonight
G6 G    D       Em             D
I  know that no one, no one survives
          [G]
No one survives

OUTRO
| G G6 | % | 
| G G6 | % | 
| G G6 | % | 
| G G6 | G
Tap to rate this tab
# A B C D E F G H I J K L M N O P Q R S T U V W X Y Z