Guitaretab - guitar tabs
Song name
# A B C D E F G H I J K L M N O P Q R S T U V W X Y Z

Azure Ray - We Exchanged Words tab

We Exchanged Words  Azure Ray

The song follows this pattern until the last bit:

  Am                              Em
---------------------------------0---------------0---------------|
-0---0---0---0---0---0---0---0-------2---2---2-------2---2---2---|
-----------------------------------------------------------------|
---2---2---2---2---2---2---2---2---0---0---0---0---0---0---0---0-|
-----1---1---1-------1---1---1-------0---0---0-------0---0---0---|
-----------------------------------------------------------------|
[ Tab from: http://www.guitaretab.com/a/azure-ray/73585.html ]
 F                               Dm
-1---------------1-----------------------------------------------|
-----3---3---3-------3---3---3-----------------------------------|
---------------------------------0---0---0---0---0---0---0---0---|
---2---2---2---2---2---2---2---2---3---3---3---3---3---3---3---3-|
-----1---1---1-------1---1---1-------2---2---2-------2---2---2---|
-----------------------------------------------------------------|


we exchanged words
through smoke-filled mouths
and then we found our bodies
speaking loud
and our hearts pressed
against the flesh
trading stories
of love's pain
doubt
and rivaling insecurities

(strings: F  Am)

Dm                   Em
when did we learn to speak without words
and in tongues?
maybe we should just stop here.
Related for We Exchanged Words tab