Guitaretab - guitar tabs
Song name
# A B C D E F G H I J K L M N O P Q R S T U V W X Y Z

Azure Ray - Other Than This World tab

other than this world  azure ray

this is the main pattern (strum chords later):

 A               D                 Bm
--------------------------------------------------------------------|
-0-----0-----0---------------------2------2-----2---2-----2-----2---|
-------------------0-----0-----0------------------------------------|
-----2--------------------------------------------------------------|
---2-------2---2_3-----3-----3----------3-----3---------3-----3-----|
---------0-----------2-----2-----2----2-----2-----2---2-----2-----2-|
[ Tab from: http://www.guitaretab.com/a/azure-ray/73588.html ]
 A               D                 E
-----------------------------------0---------------0---------------|
-0-----0-----0---------------------------2-----2---------2-----2---|
-------------------0-----0-----0-----------------------------------|
-----2-------------------------------------------------------------|
---2-------2---2_3-----3-----3---------0-----0---------0-----0-----|
---------0-----------2-----2-----2----0-----0----0---0-----0-----0-|


the other part ("secrets spill into my room..."):


-6---------------6---------------4---------------4---------------|
-------6-----6---------6-----6---------4-----4---------4-----4---|
-----------------------------------------------------------------|
-----------------------------------------------------------------|
-----6-----6---------6-----6---------4-----4---------4-----4-----|
---6-----6-----6---6-----6-----6---4-----4-----4---4-----4-----4-|


-7---------------7---------------0---------------0---------------|
-------9-----9---------9-----9---------2-----2---------2-----2---|
-----------------------------------------------------------------|
-----------------------------------------------------------------|
-----7-----7---------7-----7---------0-----0---------0-----0-----|
---7-----7-----7---7-----7-----7---0-----0-----0---0-----0-----0-|
Related for Other Than This World tab