Song name
# A B C D E F G H I J K L M N O P Q R S T U V W X Y Z

Azusa - Catharsis tab

Help us improve GuitareTab! Take a short survey!
sorry i did not finish this it just takes to long and im to busy for this ill add more 
if i can

drop c

------------------------------------------------------------|
------------------------------------------------------------|
------------------------------------------------------------|
------------------------------------------------------------|
---5h8---7-8------5h8---7-8------5h8--7-8------5h8--7-8-----|
-8------8-8-8---5------5-0-0---0-----0-0-0---0-----0-0-0----|

---------------------|
---------------------|
---------------------|
-8--------------5----|
-8--------------5----|
-8--------------5----|
Related for Catharsis tab