Song name
# A B C D E F G H I J K L M N O P Q R S T U V W X Y Z

B Fachada - Estar A Espera Ou Procurar tab

"Estar a espera ou procurar" by portuguese artist B Fachada.
Capo 3rd fret

Video: "http://videos.sapo.pt/nGsFFfAUIZ6DVllnvW6U"
Everything here is my own take on this song. I'm unsure about the last chord of the chorus.


VERSE
|--0---0---0---0------------------|
|--0---0---0---0------------------|
|--0---0---0---0------------------|
|------5---2---4------------------|
|--2---4---3---5------------------|
|------5---3---5------------------|

CHORUS
|--0---0---0---0---|
|--0---0---0---0---|
|--0---0---0---0---|
|--2---1---0---5---|
|--3---2---2---4---|
|--3---2-------5---|
Tap to rate this tab
 
# A B C D E F G H I J K L M N O P Q R S T U V W X Y Z