Song name
# A B C D E F G H I J K L M N O P Q R S T U V W X Y Z

B Fachada - Kit De Prestidigitacao tab

"Kit de prestidigitacao" by portuguese artist B Fachada.

Capo up high, according to your own voice. I believe he uses it in the 10th fret

VERSE
|-----0------0---|
|-----0------0---|
|-----0------0---|
|---1/2----2/4---|
|---2/3----3/5---|
|---2/3----3/5---|

CHORUS
|-----0------0------0------0---|
|-----0------0------0------0---|
|-----0------0----0-0----0-0---|
|---0-0----0-0----1/2----3/4---|
|---1/2----3/4----2/3----4/5---|
|---2/3----4/5-----------------|

Lyrics here: http://letras.terra.com.br/b-fachada/1650114/
Video here: http://www.youtube.com/watch?v=pqZqUrzqk2k

Official B Fachada website: http://www.myspace.com/bfachada
Tap to rate this tab
# A B C D E F G H I J K L M N O P Q R S T U V W X Y Z