Song name
# A B C D E F G H I J K L M N O P Q R S T U V W X Y Z

B Fachada - Tempo Para Cantar tab

Capo 6th fret

Versos

|-----0-----0-----0-----0-----0-----0-----0-----0-----0-----0-----0-----0--|
|-----1-----1-----1-----1-----0-----0-----0-----0-----0-----0-----0-----0--|
|-----0-----0-----0-----0-----0-----0-----0-----0-----0-----0-----0-----0--|
|-----2-----2-----2-----2-----0-----0-----0-----0-----0-----0-----0--0--0--|
|--0--0-----0--0--0-----0-----2-----2-----2-----2-----3--3--3-----3-----3--|
|--------0-----------0-----3-----0-----3-----0-----1-----------1-----------|


|-----0-----0-----0-----0--|
|-----0-----0-----0-----0--|
|-----0-----0-----0-----0--|
|-----0-----0-----0-----0--|
|-----5-----5-----5-----6--|
|--3-----0-----3-----4--4--|

Refrão
|---0----0----0----0---|
|---1----0----1----1---|
|---0----1----0----2---|
|---2----2----2----3---|
|---3----2----0----3---|
|---3----0-------------|
Tap to rate this tab
# A B C D E F G H I J K L M N O P Q R S T U V W X Y Z