Song name
# A B C D E F G H I J K L M N O P Q R S T U V W X Y Z

B J Thomas - Raindrops Keep Falling On My Head tab

Help us improve GuitareTab! Take a short survey!
G        C        F
|---0---||---0---||---1---|
|---3---||---1---||---1---|
|---0---||---0---||---2---|
|---0---||---2---||---3---|
|---2---||---3---||-------|
|---3---||-------||-------|

Intro: G G G C C C F F F G G G G


|--------------------------0---------------2-0-------2-0-|
|-0-0-0-1-0-----0----3-3-3---3-1-0-0-1---------3-0-------|
|-----------2-0------------------------2-0---------0-----|
|--------------------------------------------------------|
|--------------------------------------------------------|
|--------------------------------------------------------|

|-------------------------------|
|-3-3-0-1-3-1---3-3-0-1-3-------|  REPEAT
|-------------4-----------0-0-2-|
|-------------------------------|
|-------------------------------|
|-------------------------------|

|-----------------------------0-----0-----2-0---------------------------|
|-----3----0-1-0------------1---3-----3-------3-0-----------------------|
|-4-----2--------2-0-4-2--4-------4-----4---------2-0-4-2--0-0-2--0-0-2-|
|-----------------------------------------------------------------------|
|-----------------------------------------------------------------------|
|-----------------------------------------------------------------------|

then start over again and play everything again

If you have any comment or question e-mail me at ted_torkkeli@hotmail.com
Related for Raindrops Keep Falling On My Head tab