Song name
# A B C D E F G H I J K L M N O P Q R S T U V W X Y Z

B Story - Back Then Acoustic tab

-----------------------------------------------------------------------------
                              BACK THEN (Acoustic - B Story
-----------------------------------------------------------------------------
Tabbed by: GuitarBacon123
Tuning: Standard - Capo 2nd Fret


This is the full acoustic Guitar Tab of "B STORY - Back Then (Acoustic)"
https://www.youtube.com/watch?v=rjxAkfhVatk <---- Link to video

This will be pretty detailed since there's a bit of little changes here and there, 
but I'll try and make it as clear as possible.
This is, as far as I know, the only tabs on the Acoustic version of Back Then :)
The timing that is shown is based off the youtube video link above.

NOTE* Capo on the 2nd Fret
NOTE* Julian taps on the strings after each chord
TIP* It's all bar chords, so keep an E shape with your 2nd, 3rd and 4th fingers so 
you can just slide up the frets and bar with your 1st finger.
NOTE* h means Hammer.
ALSO* Don't be too intimidated, it's pretty repetitive
And sorry if there are any mistakes.


                0:00 --> 0:21 

    F#           A#         B          C#
e|----------|----------|----------|----------|
B|----------|----------|----------|----------|
G|--0h1--1--|--5----5--|--6----6--|--8----8--|  (x4)
D|-------2--|-------6--|-------7--|-------9--| 
A|----------|----------|----------|----------|
E|--0-------|--0-4-----|--0-5-----|--0-7-----|


                0:21 --> 0:26

     D#          A#         B          F#  
e|----------|----------|----------|----------|
B|----------|----------|----------|----------|
G|--10---10-|--5----5--|--6----6--|--0h1--1--|
D|-------11-|-------6--|-------7--|-------2--|
A|----------|----------|----------|----------|
E|--0-9-----|--0-4-----|--0-5-----|--0-------|


                0:26 --> 0:53

    F#           A#         B          C#
e|----------|----------|----------|----------|
B|----------|----------|----------|----------|
G|--0h1--1--|--5----5--|--6----6--|--8----8--|  (x5)
D|-------2--|-------6--|-------7--|-------9--| 
A|----------|----------|----------|----------|
E|--0-------|--0-4-----|--0-5-----|--0-9-----|

  
                0:53 --> 0:58
 
     D#          A#         B          F#  
e|----------|----------|----------|----------|
B|----------|----------|----------|----------|
G|--10---10-|--5----5--|--6----6--|--0h1--1--|
D|-------11-|-------6--|-------7--|-------2--| 
A|----------|----------|----------|----------|  
E|--0-9-----|--0-4-----|--0-5-----|--0-------|


                0:58 --> 1:14

    F#           A#         B          C#
e|----------|----------|----------|----------| (x3)
B|----------|----------|----------|----------|(Note, first F# there's an
G|--0h1--1--|--5----5--|--6----6--|--8----8--| up strum on the first 3
D|-------2--|-------6--|-------7--|-------9--| strings. on the x2, there
A|----------|----------|----------|----------| is an down-up strum on the 
E|--0-------|--0-4-----|--0-5-----|--0-7-----| last notes on C#. Listen to 
                                               the song at around 0:58)

                1:14 --> 1:19 

      D#          A#         B          F#  
e|----------|----------|----------|----------|
B|----------|----------|----------|----------|
G|--10---10-|--5----5--|--6----6--|--0h1--1--|
D|-------11-|-------6--|-------7--|-------2--| 
A|----------|----------|----------|----------|  
E|--0-9-----|--0-4-----|--0-5-----|--0-------|


                1:19 --> 1:24

    F#           A#         B          C#
e|----------|----------|----------|----------|
B|----------|----------|----------|----------|
G|--0h1--1--|--5----5--|--6----6--|--8-----8-|  (Down strum on the last
D|-------2--|-------6--|-------7--|--------9-|   C# notes)
A|----------|----------|----------|----------|
E|--0-------|--0-4-----|--0-5-----|--0-7-----|      



Strumming comes in on B and C# bar chords.

D = Down strum    U = Up strum    x = muted strum
     

Listen to song at 1:24 for timing.


                1:24 --> 1:30

 |          B           |          C#        | 
 |  D  U  D   U   U  D  |  D  U  D   U   U  D|
e|--5--5--x---5---5--x--|--7--7--x---7---7--x|
B|--5--5--x---5---5--x--|--7--7--x---7---7--x|
G|--6--6--x---6---6--x--|--8--8--x---8---8--x|  
D|--7--7--x---7---7--x--|--9--9--x---9---9--x|
A|--7--7--x---7---7--x--|--9--9--x---9---9--x|
E|--5--5--x---5---5--x--|--7--7--x---7---7--x|
                                             

                1:30 --> 1:35

 |          B           |    C#        B         
 |  D  U  D   U   U  D  |  
e|--5--5--x---5---5--x--|-------7-|--------5-|
B|--5--5--x---5---5--x--|-------7-|--------5-|
G|--6--6--x---6---6--x--|--8------|--6-------|  
D|--7--7--x---7---7--x--|---------|----------|
A|--7--7--x---7---7--x--|---------|----------|
E|--5--5--x---5---5--x--|--0-7----|--0-5-----|


                1:35 --> 1:45

     F#          A#         B          C#
e|-------0--|-------4--|-------5--|--------7-|
B|-------0--|-------4--|-------5--|--------7-|  (x2)    
G|--0h1-----|--5-------|--6-------|--8-------| 
D|----------|----------|----------|----------| (Random Strumming around C#
A|----------|----------|----------|----------|  Through the 2nd time)
E|--0-------|--0-4-----|--0-5-----|--0-7-----|


Same chords, but strumming now

                1:45 --> 1:50


 | D  U  D  |U  D  U  D|U  D  U  D|U  D  U  D|  
 |   F#     |    A#    |    B     |    C#    |
e|-0--0--x--|0--4--4--x|0--5--5--x|0--7--7--x|
B|-0--0--x--|0--4--4--x|0--5--5--x|0--7--7--x|
G|-1--1--x--|5--5--5--x|6--6--6--x|8--8--8--x| 
D|-2--2--x--|6--6--6--x|7--7--7--x|9--9--9--x|    
A|-2--2--x--|6--6--6--x|7--7--7--x|9--9--9--x|
E|-0--0--x--|0--4--4--x|0--5--5--x|0--7--7--x|


                1:50 --> 1:56

 | D  U  D  |U  D  U  D|U  D  U  D|U  D  U  D|  
 |   F#     |    A#    |    B     |    C#    |
e|-0--0--x--|0--4--4--x|0--5--5--x|0--7--7--7|
B|-0--0--x--|0--4--4--x|0--5--5--x|0--7--7--7|  (Same as last one, but louder
G|-1--1--x--|5--5--5--x|6--6--6--x|8--8--8--8|   strum on the last C# chord
D|-2--2--x--|6--6--6--x|7--7--7--x|9--9--9--9|   since theres no Mute)
A|-2--2--x--|6--6--6--x|7--7--7--x|9--9--9--9|
E|-0--0--x--|0--4--4--x|0--5--5--x|0--7--7--7|


                1:56 --> 2:01

 |U  D  U  D  |U  D  U  D|U  D  U  D|U  D  U  D|  
 |     F#     |    A#    |    B     |    C#    |
e|0--0--0--x--|0--4--4--x|0--5--5--x|0--0--0--x|
B|0--0--0--x--|0--4--4--x|0--5--5--x|0--0--0--x|  (extra strum at F#)
G|1--1--1--x--|5--5--5--x|6--6--6--x|8--8--8--x| 
D|2--2--2--x--|6--6--6--x|7--7--7--x|9--9--9--x|    
A|2--2--2--x--|6--6--6--x|7--7--7--x|9--9--9--x|
E|0--0--0--x--|0--4--4--x|0--5--5--x|0--7--7--x|


                2:01 --> 2:06

 | U  D  U  D |U  D  U  D|U  D  U  D|U  D  U  D|  
 |     F#     |    A#    |    B     |    C#    |
e|-0--9--9--x-|0--4--4--x|0--5--5--x|0--0--0--x|
B|-0--9--9--x-|0--4--4--x|0--5--5--x|0--0--0--x|  
G|-10-10-10-x-|5--5--5--x|6--6--6--x|1--1--1--x| 
D|-11-11-11-x-|6--6--6--x|7--7--7--x|2--2--2--x|    
A|-11-11-11-x-|6--6--6--x|7--7--7--x|2--2--2--x|
E|-0--9--9--x-|0--4--4--x|0--5--5--x|0--0--0--x|


                2:06 --> 2:11

 |U  D  U  D  |U  D  U  D|U  D  U  D|U  D  U  D|  
 |     F#     |    A#    |    B     |    C#    |
e|0--0--0--x--|0--4--4--x|0--5--5--x|0--0--0--x|
B|0--0--0--x--|0--4--4--x|0--5--5--x|0--0--0--x|  
G|1--1--1--x--|5--5--5--x|6--6--6--x|8--8--8--x| 
D|2--2--2--x--|6--6--6--x|7--7--7--x|9--9--9--x|    
A|2--2--2--x--|6--6--6--x|7--7--7--x|9--9--9--x|
E|0--0--0--x--|0--4--4--x|0--5--5--x|0--7--7--x|


                2:11 --> 2:24 (END)

 |U  D  U  D  |U  D  U  D|U  D  U  D|  U  
 |     F#     |    A#    |    B     |    F#
e|0--0--0--x--|0--4--4--x|0--5--5--x|--0-------|
B|0--0--0--x--|0--4--4--x|0--5--5--x|--0-------|
G|1--1--1--x--|5--5--5--x|6--6--6--x|--1-------| 
D|2--2--2--x--|6--6--6--x|7--7--7--x|--2-------|    
A|2--2--2--x--|6--6--6--x|7--7--7--x|--2-------|
E|0--0--0--x--|0--4--4--x|0--5--5--x|--0-------|
Tap to rate this tab
# A B C D E F G H I J K L M N O P Q R S T U V W X Y Z